  0
SECTION
  2
HEADER
  9
$ACADVER
  1
AC1018
  9
$ACADMAINTVER
 70
     0
  9
$DWGCODEPAGE
  3
ANSI_1250
  9
$INSBASE
 10
0.0
 20
0.0
 30
0.0
  9
$EXTMIN
 10
-0.000000000001112
 20
0.0
 30
0.0
  9
$EXTMAX
 10
4168.953318805385
 20
13180.0
 30
0.0
  9
$LIMMIN
 10
0.0
 20
0.0
  9
$LIMMAX
 10
12.0
 20
9.0
  9
$ORTHOMODE
 70
     0
  9
$REGENMODE
 70
     1
  9
$FILLMODE
 70
     1
  9
$QTEXTMODE
 70
     0
  9
$MIRRTEXT
 70
     1
  9
$LTSCALE
 40
1.0
  9
$ATTMODE
 70
     1
  9
$TEXTSIZE
 40
0.2
  9
$TRACEWID
 40
0.05
  9
$TEXTSTYLE
  7
Standard
  9
$CLAYER
  8
99-model
  9
$CELTYPE
  6
ByLayer
  9
$CECOLOR
 62
   256
  9
$CELTSCALE
 40
1.0
  9
$DISPSILH
 70
     0
  9
$DIMSCALE
 40
1.0
  9
$DIMASZ
 40
0.18
  9
$DIMEXO
 40
0.0625
  9
$DIMDLI
 40
0.38
  9
$DIMRND
 40
0.0
  9
$DIMDLE
 40
0.0
  9
$DIMEXE
 40
0.18
  9
$DIMTP
 40
0.0
  9
$DIMTM
 40
0.0
  9
$DIMTXT
 40
0.18
  9
$DIMCEN
 40
0.09
  9
$DIMTSZ
 40
0.0
  9
$DIMTOL
 70
     0
  9
$DIMLIM
 70
     0
  9
$DIMTIH
 70
     1
  9
$DIMTOH
 70
     1
  9
$DIMSE1
 70
     0
  9
$DIMSE2
 70
     0
  9
$DIMTAD
 70
     0
  9
$DIMZIN
 70
     0
  9
$DIMBLK
  1

  9
$DIMASO
 70
     1
  9
$DIMSHO
 70
     1
  9
$DIMPOST
  1

  9
$DIMAPOST
  1

  9
$DIMALT
 70
     0
  9
$DIMALTD
 70
     2
  9
$DIMALTF
 40
25.4
  9
$DIMLFAC
 40
1.0
  9
$DIMTOFL
 70
     0
  9
$DIMTVP
 40
0.0
  9
$DIMTIX
 70
     0
  9
$DIMSOXD
 70
     0
  9
$DIMSAH
 70
     0
  9
$DIMBLK1
  1

  9
$DIMBLK2
  1

  9
$DIMSTYLE
  2
Standard
  9
$DIMCLRD
 70
     0
  9
$DIMCLRE
 70
     0
  9
$DIMCLRT
 70
     0
  9
$DIMTFAC
 40
1.0
  9
$DIMGAP
 40
0.09
  9
$DIMJUST
 70
     0
  9
$DIMSD1
 70
     0
  9
$DIMSD2
 70
     0
  9
$DIMTOLJ
 70
     1
  9
$DIMTZIN
 70
     0
  9
$DIMALTZ
 70
     0
  9
$DIMALTTZ
 70
     0
  9
$DIMUPT
 70
     0
  9
$DIMDEC
 70
     4
  9
$DIMTDEC
 70
     4
  9
$DIMALTU
 70
     2
  9
$DIMALTTD
 70
     2
  9
$DIMTXSTY
  7
Standard
  9
$DIMAUNIT
 70
     0
  9
$DIMADEC
 70
     0
  9
$DIMALTRND
 40
0.0
  9
$DIMAZIN
 70
     0
  9
$DIMDSEP
 70
    46
  9
$DIMATFIT
 70
     3
  9
$DIMFRAC
 70
     0
  9
$DIMLDRBLK
  1

  9
$DIMLUNIT
 70
     2
  9
$DIMLWD
 70
    -2
  9
$DIMLWE
 70
    -2
  9
$DIMTMOVE
 70
     2
  9
$LUNITS
 70
     2
  9
$LUPREC
 70
     3
  9
$SKETCHINC
 40
0.1
  9
$FILLETRAD
 40
0.5
  9
$AUNITS
 70
     0
  9
$AUPREC
 70
     0
  9
$MENU
  1
.
  9
$ELEVATION
 40
0.0
  9
$PELEVATION
 40
0.0
  9
$THICKNESS
 40
0.0
  9
$LIMCHECK
 70
     0
  9
$CHAMFERA
 40
0.0
  9
$CHAMFERB
 40
0.0
  9
$CHAMFERC
 40
0.0
  9
$CHAMFERD
 40
0.0
  9
$SKPOLY
 70
     0
  9
$TDCREATE
 40
2459100.845292697
  9
$TDUCREATE
 40
2459100.761959363
  9
$TDUPDATE
 40
2459100.845332685
  9
$TDUUPDATE
 40
2459100.761999352
  9
$TDINDWG
 40
0.0000000116
  9
$TDUSRTIMER
 40
0.0000000116
  9
$USRTIMER
 70
     1
  9
$ANGBASE
 50
0.0
  9
$ANGDIR
 70
     0
  9
$PDMODE
 70
     0
  9
$PDSIZE
 40
0.0
  9
$PLINEWID
 40
0.0
  9
$SPLFRAME
 70
     0
  9
$SPLINETYPE
 70
     6
  9
$SPLINESEGS
 70
     8
  9
$HANDSEED
  5
197
  9
$SURFTAB1
 70
     6
  9
$SURFTAB2
 70
     6
  9
$SURFTYPE
 70
     6
  9
$SURFU
 70
     6
  9
$SURFV
 70
     6
  9
$UCSBASE
  2

  9
$UCSNAME
  2

  9
$UCSORG
 10
0.0
 20
0.0
 30
0.0
  9
$UCSXDIR
 10
1.0
 20
0.0
 30
0.0
  9
$UCSYDIR
 10
0.0
 20
1.0
 30
0.0
  9
$UCSORTHOREF
  2

  9
$UCSORTHOVIEW
 70
     0
  9
$UCSORGTOP
 10
0.0
 20
0.0
 30
0.0
  9
$UCSORGBOTTOM
 10
0.0
 20
0.0
 30
0.0
  9
$UCSORGLEFT
 10
0.0
 20
0.0
 30
0.0
  9
$UCSORGRIGHT
 10
0.0
 20
0.0
 30
0.0
  9
$UCSORGFRONT
 10
0.0
 20
0.0
 30
0.0
  9
$UCSORGBACK
 10
0.0
 20
0.0
 30
0.0
  9
$PUCSBASE
  2

  9
$PUCSNAME
  2

  9
$PUCSORG
 10
0.0
 20
0.0
 30
0.0
  9
$PUCSXDIR
 10
1.0
 20
0.0
 30
0.0
  9
$PUCSYDIR
 10
0.0
 20
1.0
 30
0.0
  9
$PUCSORTHOREF
  2

  9
$PUCSORTHOVIEW
 70
     0
  9
$PUCSORGTOP
 10
0.0
 20
0.0
 30
0.0
  9
$PUCSORGBOTTOM
 10
0.0
 20
0.0
 30
0.0
  9
$PUCSORGLEFT
 10
0.0
 20
0.0
 30
0.0
  9
$PUCSORGRIGHT
 10
0.0
 20
0.0
 30
0.0
  9
$PUCSORGFRONT
 10
0.0
 20
0.0
 30
0.0
  9
$PUCSORGBACK
 10
0.0
 20
0.0
 30
0.0
  9
$USERI1
 70
     0
  9
$USERI2
 70
     0
  9
$USERI3
 70
     0
  9
$USERI4
 70
     0
  9
$USERI5
 70
     0
  9
$USERR1
 40
0.0
  9
$USERR2
 40
0.0
  9
$USERR3
 40
0.0
  9
$USERR4
 40
0.0
  9
$USERR5
 40
0.0
  9
$WORLDVIEW
 70
     1
  9
$SHADEDGE
 70
     3
  9
$SHADEDIF
 70
    70
  9
$TILEMODE
 70
     1
  9
$MAXACTVP
 70
    64
  9
$PINSBASE
 10
0.0
 20
0.0
 30
0.0
  9
$PLIMCHECK
 70
     0
  9
$PEXTMIN
 10
1.000000000000000E+20
 20
1.000000000000000E+20
 30
1.000000000000000E+20
  9
$PEXTMAX
 10
-1.000000000000000E+20
 20
-1.000000000000000E+20
 30
-1.000000000000000E+20
  9
$PLIMMIN
 10
0.0
 20
0.0
  9
$PLIMMAX
 10
12.0
 20
9.0
  9
$UNITMODE
 70
     0
  9
$VISRETAIN
 70
     1
  9
$PLINEGEN
 70
     0
  9
$PSLTSCALE
 70
     1
  9
$TREEDEPTH
 70
  3020
  9
$CMLSTYLE
  2
Standard
  9
$CMLJUST
 70
     0
  9
$CMLSCALE
 40
1.0
  9
$PROXYGRAPHICS
 70
     1
  9
$MEASUREMENT
 70
     0
  9
$CELWEIGHT
370
    -1
  9
$ENDCAPS
280
     0
  9
$JOINSTYLE
280
     0
  9
$LWDISPLAY
290
     0
  9
$INSUNITS
 70
     4
  9
$HYPERLINKBASE
  1

  9
$STYLESHEET
  1

  9
$XEDIT
290
     1
  9
$CEPSNTYPE
380
     0
  9
$PSTYLEMODE
290
     1
  9
$FINGERPRINTGUID
  2
{3A245137-7781-4383-95C4-115D9786B6F6}
  9
$VERSIONGUID
  2
{FAEB1C32-E019-11D5-929B-00C0DF256EC4}
  9
$EXTNAMES
290
     1
  9
$PSVPSCALE
 40
0.0
  9
$OLESTARTUP
290
     0
  9
$SORTENTS
280
   127
  9
$INDEXCTL
280
     0
  9
$HIDETEXT
280
     1
  9
$XCLIPFRAME
290
     0
  9
$HALOGAP
280
     0
  9
$OBSCOLOR
 70
   257
  9
$OBSLTYPE
280
     0
  9
$INTERSECTIONDISPLAY
280
     0
  9
$INTERSECTIONCOLOR
 70
   257
  9
$DIMASSOC
280
     2
  9
$PROJECTNAME
  1

  0
ENDSEC
  0
SECTION
  2
CLASSES
  0
CLASS
  1
ACDBDICTIONARYWDFLT
  2
AcDbDictionaryWithDefault
  3
ObjectDBX Classes
 90
        0
 91
        4
280
     0
281
     0
  0
CLASS
  1
VISUALSTYLE
  2
AcDbVisualStyle
  3
ObjectDBX Classes
 90
     4095
 91
        4
280
     0
281
     0
  0
CLASS
  1
MATERIAL
  2
AcDbMaterial
  3
ObjectDBX Classes
 90
     1153
 91
        4
280
     0
281
     0
  0
CLASS
  1
SCALE
  2
AcDbScale
  3
ObjectDBX Classes
 90
     1153
 91
        4
280
     0
281
     0
  0
CLASS
  1
SUN
  2
AcDbSun
  3
SCENEOE
 90
     1153
 91
        4
280
     0
281
     0
  0
CLASS
  1
DICTIONARYVAR
  2
AcDbDictionaryVar
  3
ObjectDBX Classes
 90
        0
 91
        4
280
     0
281
     0
  0
ENDSEC
  0
SECTION
  2
TABLES
  0
TABLE
  2
VPORT
  5
8
330
0
100
AcDbSymbolTable
 70
     1
  0
VPORT
  5
29
330
8
100
AcDbSymbolTableRecord
100
AcDbViewportTableRecord
  2
*Active
 70
     0
 10
0.0
 20
0.0
 11
1.0
 21
1.0
 12
2084.476659402692
 22
6590.0
 13
0.0
 23
0.0
 14
0.5
 24
0.5
 15
0.5
 25
0.5
 16
0.0
 26
0.0
 36
1.0
 17
0.0
 27
0.0
 37
0.0
 40
13443.6
 41
0.3163090530201355
 42
50.0
 43
0.0
 44
0.0
 50
0.0
 51
0.0
 71
     0
 72
   100
 73
     1
 74
     3
 75
     0
 76
     0
 77
     0
 78
     0
281
     0
 65
     1
110
0.0
120
0.0
130
0.0
111
1.0
121
0.0
131
0.0
112
0.0
122
1.0
132
0.0
 79
     0
146
0.0
  0
ENDTAB
  0
TABLE
  2
LTYPE
  5
5
330
0
100
AcDbSymbolTable
 70
     1
  0
LTYPE
  5
14
330
5
100
AcDbSymbolTableRecord
100
AcDbLinetypeTableRecord
  2
ByBlock
 70
     0
  3

 72
    65
 73
     0
 40
0.0
  0
LTYPE
  5
15
330
5
100
AcDbSymbolTableRecord
100
AcDbLinetypeTableRecord
  2
ByLayer
 70
     0
  3

 72
    65
 73
     0
 40
0.0
  0
LTYPE
  5
16
330
5
100
AcDbSymbolTableRecord
100
AcDbLinetypeTableRecord
  2
Continuous
 70
     0
  3
Solid line
 72
    65
 73
     0
 40
0.0
  0
ENDTAB
  0
TABLE
  2
LAYER
  5
2
330
0
100
AcDbSymbolTable
 70
     2
  0
LAYER
  5
10
330
2
100
AcDbSymbolTableRecord
100
AcDbLayerTableRecord
  2
0
 70
     0
 62
     7
  6
Continuous
370
    -3
390
F
  0
LAYER
  5
6A
330
2
100
AcDbSymbolTableRecord
100
AcDbLayerTableRecord
  2
99-model
 70
     0
 62
     8
420
  8224125
  6
Continuous
370
    -3
390
F
  0
ENDTAB
  0
TABLE
  2
STYLE
  5
3
330
0
100
AcDbSymbolTable
 70
     1
  0
STYLE
  5
11
330
3
100
AcDbSymbolTableRecord
100
AcDbTextStyleTableRecord
  2
Standard
 70
     0
 40
0.0
 41
1.0
 50
0.0
 71
     0
 42
0.2
  3
txt
  4

  0
ENDTAB
  0
TABLE
  2
VIEW
  5
6
330
0
100
AcDbSymbolTable
 70
     0
  0
ENDTAB
  0
TABLE
  2
UCS
  5
7
330
0
100
AcDbSymbolTable
 70
     0
  0
ENDTAB
  0
TABLE
  2
APPID
  5
9
330
0
100
AcDbSymbolTable
 70
     1
  0
APPID
  5
12
330
9
100
AcDbSymbolTableRecord
100
AcDbRegAppTableRecord
  2
ACAD
 70
     0
  0
ENDTAB
  0
TABLE
  2
DIMSTYLE
  5
A
330
0
100
AcDbSymbolTable
 70
     1
100
AcDbDimStyleTable
  0
DIMSTYLE
105
27
330
A
100
AcDbSymbolTableRecord
100
AcDbDimStyleTableRecord
  2
Standard
 70
     0
178
     0
340
11
  0
ENDTAB
  0
TABLE
  2
BLOCK_RECORD
  5
1
330
0
100
AcDbSymbolTable
 70
     1
  0
BLOCK_RECORD
  5
1F
330
1
100
AcDbSymbolTableRecord
100
AcDbBlockTableRecord
  2
*Model_Space
340
22
  0
BLOCK_RECORD
  5
1B
330
1
100
AcDbSymbolTableRecord
100
AcDbBlockTableRecord
  2
*Paper_Space
340
1E
  0
BLOCK_RECORD
  5
23
330
1
100
AcDbSymbolTableRecord
100
AcDbBlockTableRecord
  2
*Paper_Space0
340
26
  0
ENDTAB
  0
ENDSEC
  0
SECTION
  2
BLOCKS
  0
BLOCK
  5
20
330
1F
100
AcDbEntity
  8
0
100
AcDbBlockBegin
  2
*Model_Space
 70
     0
 10
0.0
 20
0.0
 30
0.0
  3
*Model_Space
  1
*Model_Space
  0
ENDBLK
  5
21
330
1F
100
AcDbEntity
  8
0
100
AcDbBlockEnd
  0
BLOCK
  5
1C
330
1B
100
AcDbEntity
 67
     1
  8
0
100
AcDbBlockBegin
  2
*Paper_Space
 70
     0
 10
0.0
 20
0.0
 30
0.0
  3
*Paper_Space
  1
*Paper_Space
  0
ENDBLK
  5
1D
330
1B
100
AcDbEntity
 67
     1
  8
0
100
AcDbBlockEnd
  0
BLOCK
  5
24
330
23
100
AcDbEntity
  8
0
100
AcDbBlockBegin
  2
*Paper_Space0
 70
     0
 10
0.0
 20
0.0
 30
0.0
  3
*Paper_Space0
  1
*Paper_Space0
  0
ENDBLK
  5
25
330
23
100
AcDbEntity
  8
0
100
AcDbBlockEnd
  0
ENDSEC
  0
SECTION
  2
ENTITIES
  0
LINE
  5
6B
330
1F
100
AcDbEntity
  8
99-model
100
AcDbLine
 10
1396.953318804457
 20
13152.0
 30
0.0
 11
4140.953318806334
 21
13152.0
 31
0.0
  0
LINE
  5
6C
330
1F
100
AcDbEntity
  8
99-model
100
AcDbLine
 10
1447.008258439013
 20
13092.0
 30
0.0
 11
4090.898379171757
 21
13092.0
 31
0.0
  0
LINE
  5
6D
330
1F
100
AcDbEntity
  8
99-model
100
AcDbLine
 10
4168.953318805385
 20
13180.0
 30
0.0
 11
1368.953318805384
 21
13180.0
 31
0.0
  0
ARC
  5
6E
330
1F
100
AcDbEntity
  8
99-model
100
AcDbCircle
 10
1840.953318806257
 20
13179.99999999913
 30
0.0
 40
27.99999999912779
100
AcDbArc
 50
270.0000000001136
 51
0.0000000017866357
  0
ARC
  5
6F
330
1F
100
AcDbEntity
  8
99-model
100
AcDbCircle
 10
1896.953318804515
 20
13179.99999999913
 30
0.0
 40
27.99999999913007
100
AcDbArc
 50
179.9999999982208
 51
269.9999999998819
  0
LINE
  5
70
330
1F
100
AcDbEntity
  8
99-model
100
AcDbLine
 10
2446.953673865558
 20
13152.0
 30
0.0
 11
2446.953673865558
 21
13092.0
 31
0.0
  0
ARC
  5
71
330
1F
100
AcDbEntity
  8
99-model
100
AcDbCircle
 10
2340.953318806256
 20
13179.99999999913
 30
0.0
 40
27.99999999912916
100
AcDbArc
 50
270.0000000001164
 51
0.0000000017791914
  0
ARC
  5
72
330
1F
100
AcDbEntity
  8
99-model
100
AcDbCircle
 10
2396.953318804514
 20
13179.99999999913
 30
0.0
 40
27.99999999912916
100
AcDbArc
 50
179.9999999982171
 51
269.9999999998836
  0
LINE
  5
73
330
1F
100
AcDbEntity
  8
99-model
100
AcDbLine
 10
4087.953318805373
 20
12420.0
 30
0.0
 11
4137.115950024591
 21
12420.0
 31
0.0
  0
SPLINE
  5
74
330
1F
100
AcDbEntity
  8
99-model
100
AcDbSpline
210
0.0
220
0.0
230
1.0
 70
     8
 71
     3
 72
    10
 73
     6
 74
     0
 42
0.000000001
 43
0.0000000001
 40
0.0
 40
0.0
 40
0.0
 40
0.0
 40
6.144667443985142
 40
6.144667443985142
 40
12.29667374199338
 40
12.29667374199338
 40
12.29667374199338
 40
12.29667374199338
 10
4142.861814784864
 20
12421.50830289099
 30
0.0
 10
4142.310616731381
 20
12421.04490491479
 30
0.0
 10
4141.551943843867
 20
12420.66454239508
 30
0.0
 10
4139.619794827909
 20
12420.14014635684
 30
0.0
 10
4138.458684318261
 20
12420.0
 30
0.0
 10
4137.11595002459
 20
12420.0
 30
0.0
  0
SPLINE
  5
75
330
1F
100
AcDbEntity
  8
99-model
100
AcDbSpline
210
0.0
220
0.0
230
1.0
 70
     8
 71
     3
 72
    21
 73
    17
 74
     0
 42
0.000000001
 43
0.0000000001
 40
0.0
 40
0.0
 40
0.0
 40
0.0
 40
4.420151095957478
 40
8.789109185509952
 40
17.1830636666543
 40
21.22002088887449
 40
25.03207203263675
 40
28.59563948871633
 40
32.20624583208568
 40
32.20624583208568
 40
32.20624583208568
 40
45.33054932512251
 40
45.33054932512251
 40
51.88817769061789
 40
51.88817769061789
 40
58.44560663932568
 40
58.44560663932568
 40
58.44560663932568
 40
58.44560663932568
 10
4153.429978208072
 20
12464.99999999987
 30
0.0
 10
4153.429866844752
 20
12463.52664931966
 30
0.0
 10
4153.384815671043
 20
12460.59684259354
 30
0.0
 10
4153.116895802074
 20
12454.87489270504
 30
0.0
 10
4152.593755570781
 20
12449.29631157899
 30
0.0
 10
4151.802207831492
 20
12443.93910396038
 30
0.0
 10
4151.101722734239
 20
12440.19924591106
 30
0.0
 10
4150.278417084623
 20
12436.62998886411
 30
0.0
 10
4149.627931751649
 20
12434.32788931131
 30
0.0
 10
4149.265463051227
 20
12433.18019484647
 30
0.0
 10
4148.35598046655
 20
12430.30179070458
 30
0.0
 10
4147.342329419341
 20
12427.87449304418
 30
0.0
 10
4145.721949629952
 20
12424.94622297335
 30
0.0
 10
4145.16581991743
 20
12424.08980771499
 30
0.0
 10
4144.029543858977
 20
12422.61780428296
 30
0.0
 10
4143.449598785478
 20
12422.00245918704
 30
0.0
 10
4142.861814784864
 20
12421.50830289099
 30
0.0
  0
SPLINE
  5
76
330
1F
100
AcDbEntity
  8
99-model
100
AcDbSpline
210
0.0
220
0.0
230
1.0
 70
     8
 71
     3
 72
    21
 73
    17
 74
     0
 42
0.000000001
 43
0.0000000001
 40
0.0
 40
0.0
 40
0.0
 40
0.0
 40
6.557428948705361
 40
6.557428948705361
 40
13.11505731422018
 40
13.11505731422018
 40
26.23936080734062
 40
26.23936080734062
 40
26.23936080734062
 40
31.12662826554966
 40
35.58830338360443
 40
44.59193379820967
 40
49.15738469835755
 40
53.49365183077357
 40
57.76991292387982
 40
62.23379733761113
 40
62.23379733761113
 40
62.23379733761113
 40
62.23379733761113
 10
4108.211688219803
 20
12421.50830289096
 30
0.0
 10
4110.254718204568
 20
12422.002459187
 30
0.0
 10
4112.270501508366
 20
12422.61780428292
 30
0.0
 10
4116.219989850978
 20
12424.08980771496
 30
0.0
 10
4118.152995303509
 20
12424.94622297331
 30
0.0
 10
4123.785139922947
 20
12427.87449304416
 30
0.0
 10
4127.308406091063
 20
12430.30179070455
 30
0.0
 10
4130.469601681941
 20
12433.18019484647
 30
0.0
 10
4131.674269844792
 20
12434.27677668557
 30
0.0
 10
4133.870183063026
 20
12436.49427495844
 30
0.0
 10
4137.718865959004
 20
12441.25836471268
 30
0.0
 10
4140.769671475838
 20
12446.47372840098
 30
0.0
 10
4142.93521055855
 20
12452.04524574058
 30
0.0
 10
4144.086651597308
 20
12456.29025277305
 30
0.0
 10
4144.785719324065
 20
12460.59873277217
 30
0.0
 10
4144.944745861883
 20
12463.51200833034
 30
0.0
 10
4144.944696833792
 20
12464.99999999987
 30
0.0
  0
ARC
  5
77
330
1F
100
AcDbEntity
  8
99-model
100
AcDbCircle
 10
4096.47197139358
 20
12466.00534541785
 30
0.0
 40
46.01964520506485
100
AcDbArc
 50
271.4283743117997
 51
284.7796463312274
  0
LINE
  5
78
330
1F
100
AcDbEntity
  8
99-model
100
AcDbLine
 10
4144.944696833784
 20
13107.00000000013
 30
0.0
 11
4144.944696833786
 21
12464.99999999987
 31
0.0
  0
SPLINE
  5
79
330
1F
100
AcDbEntity
  8
99-model
100
AcDbSpline
210
0.0
220
0.0
230
1.0
 70
     8
 71
     3
 72
    19
 73
    15
 74
     0
 42
0.000000001
 43
0.0000000001
 40
0.0
 40
0.0
 40
0.0
 40
0.0
 40
4.42804021744519
 40
8.851774976039685
 40
17.67072116941104
 40
26.64549492702106
 40
35.99443750328912
 40
35.99443750328912
 40
35.99443750328912
 40
49.11874099632595
 40
49.11874099632595
 40
55.67636936182134
 40
55.67636936182134
 40
62.23379831052912
 40
62.23379831052912
 40
62.23379831052912
 40
62.23379831052912
 10
4144.944696833784
 20
13107.00000000013
 30
0.0
 10
4144.944869514854
 20
13108.47608738973
 30
0.0
 10
4144.78473410174
 20
13111.42644145016
 30
0.0
 10
4143.835348633344
 20
13117.24861922255
 30
0.0
 10
4141.480891702623
 20
13124.31341907563
 30
0.0
 10
4136.885009351075
 20
13132.16225228214
 30
0.0
 10
4132.773839231147
 20
13136.7219878926
 30
0.0
 10
4130.469601681861
 20
13138.81980515353
 30
0.0
 10
4127.30840609101
 20
13141.69820929542
 30
0.0
 10
4123.785139922861
 20
13144.12550695582
 30
0.0
 10
4118.152995303471
 20
13147.05377702665
 30
0.0
 10
4116.219989850941
 20
13147.910192285
 30
0.0
 10
4112.270501508349
 20
13149.38219571704
 30
0.0
 10
4110.254718204562
 20
13149.99754081296
 30
0.0
 10
4108.211688219804
 20
13150.49169710901
 30
0.0
  0
SPLINE
  5
7A
330
1F
100
AcDbEntity
  8
99-model
100
AcDbSpline
210
0.0
220
0.0
230
1.0
 70
     8
 71
     3
 72
    20
 73
    16
 74
     0
 42
0.000000001
 43
0.0000000001
 40
0.0
 40
0.0
 40
0.0
 40
0.0
 40
6.557428948705361
 40
6.557428948705361
 40
13.11505731422018
 40
13.11505731422018
 40
26.23936080734062
 40
26.23936080734062
 40
26.23936080734062
 40
29.84996715070789
 40
33.41353460678939
 40
37.22558575055261
 40
41.28906030959548
 40
49.76579758255271
 40
58.44560653988774
 40
58.44560653988774
 40
58.44560653988774
 40
58.44560653988774
 10
4142.861814784865
 20
13150.49169710904
 30
0.0
 10
4143.44959878548
 20
13149.997540813
 30
0.0
 10
4144.029543858982
 20
13149.38219571708
 30
0.0
 10
4145.165819917441
 20
13147.91019228504
 30
0.0
 10
4145.721949629962
 20
13147.05377702669
 30
0.0
 10
4147.342329419365
 20
13144.12550695584
 30
0.0
 10
4148.355980466573
 20
13141.69820929545
 30
0.0
 10
4149.265463051257
 20
13138.81980515353
 30
0.0
 10
4149.627926502123
 20
13137.67210672179
 30
0.0
 10
4150.27842759536
 20
13135.37001908253
 30
0.0
 10
4151.10170860895
 20
13131.80074339463
 30
0.0
 10
4151.803857285863
 20
13128.05222307386
 30
0.0
 10
4152.599972736157
 20
13122.65880349817
 30
0.0
 10
4153.256980264837
 20
13115.6121212218
 30
0.0
 10
4153.42986525602
 20
13109.89329541338
 30
0.0
 10
4153.42997820808
 20
13107.00000000013
 30
0.0
  0
LINE
  5
7B
330
1F
100
AcDbEntity
  8
99-model
100
AcDbLine
 10
4153.42997820808
 20
13107.00000000013
 30
0.0
 11
4153.429978208078
 21
12464.99999999987
 31
0.0
  0
SPLINE
  5
7C
330
1F
100
AcDbEntity
  8
99-model
100
AcDbSpline
210
0.0
220
0.0
230
1.0
 70
     8
 71
     3
 72
    10
 73
     6
 74
     0
 42
0.000000001
 43
0.0000000001
 40
-12.07811836103281
 40
-12.07811836103281
 40
-12.07811836103281
 40
-12.07811836103281
 40
-6.144668176903346
 40
-6.144668176903346
 40
0.0
 40
0.0
 40
0.0
 40
0.0
 10
4137.258367261584
 20
13151.99947016642
 30
0.0
 10
4138.540938358024
 20
13151.98988805222
 30
0.0
 10
4139.654136175627
 20
13151.85053320954
 30
0.0
 10
4141.55194384392
 20
13151.33545760493
 30
0.0
 10
4142.310616731422
 20
13150.95509508522
 30
0.0
 10
4142.861814784865
 20
13150.49169710904
 30
0.0
  0
ARC
  5
7D
330
1F
100
AcDbEntity
  8
99-model
100
AcDbCircle
 10
4096.366280310927
 20
13105.36777670577
 30
0.0
 40
46.65277999310484
100
AcDbArc
 50
75.29124612495193
 51
88.2821688094712
  0
LINE
  5
7E
330
1F
100
AcDbEntity
  8
99-model
100
AcDbLine
 10
4090.898379171756
 20
13152.0
 30
0.0
 11
4090.898379171757
 21
13092.0
 31
0.0
  0
LINE
  5
7F
330
1F
100
AcDbEntity
  8
99-model
100
AcDbLine
 10
4140.952683670513
 20
13152.0
 30
0.0
 11
4137.906831606887
 21
13152.0
 31
0.0
  0
ARC
  5
80
330
1F
100
AcDbEntity
  8
99-model
100
AcDbCircle
 10
4140.953318806192
 20
13179.99999999919
 30
0.0
 40
27.99999999919237
100
AcDbArc
 50
270.0000000002904
 51
0.000000001652638
  0
LINE
  5
81
330
1F
100
AcDbEntity
  8
99-model
100
AcDbLine
 10
4087.953318805372
 20
12420.0
 30
0.0
 11
4087.953318805372
 21
13092.0
 31
0.0
  0
LINE
  5
82
330
1F
100
AcDbEntity
  8
99-model
100
AcDbLine
 10
450.000000000002
 20
13180.0
 30
0.0
 11
450.0003175679128
 21
13152.0
 31
0.0
  0
LINE
  5
83
330
1F
100
AcDbEntity
  8
99-model
100
AcDbLine
 10
0.000000000001819
 20
10057.0
 30
0.0
 11
0.000000000001819
 21
9683.0
 31
0.0
  0
LINE
  5
84
330
1F
100
AcDbEntity
  8
99-model
100
AcDbLine
 10
900.0000000000014
 20
10057.0
 30
0.0
 11
900.0000000000014
 21
9683.0
 31
0.0
  0
LINE
  5
85
330
1F
100
AcDbEntity
  8
99-model
100
AcDbLine
 10
450.0000000000014
 20
10120.0
 30
0.0
 11
450.0000000000014
 21
9620.0
 31
0.0
  0
ARC
  5
86
330
1F
100
AcDbEntity
  8
99-model
100
AcDbCircle
 10
63.00000000000221
 20
10057.0
 30
0.0
 40
63.0
100
AcDbArc
 50
90.00000000000078
 51
180.0
  0
ARC
  5
87
330
1F
100
AcDbEntity
  8
99-model
100
AcDbCircle
 10
836.9999999999961
 20
10056.99999999999
 30
0.0
 40
63.00000000000523
100
AcDbArc
 50
0.0000000000049629
 51
89.99999999999524
  0
LINE
  5
88
330
1F
100
AcDbEntity
  8
99-model
100
AcDbLine
 10
837.0000000000014
 20
10120.0
 30
0.0
 11
63.00000000000136
 21
10120.0
 31
0.0
  0
ARC
  5
89
330
1F
100
AcDbEntity
  8
99-model
100
AcDbCircle
 10
837.0000000000073
 20
10182.99999999999
 30
0.0
 40
62.99999999999409
100
AcDbArc
 50
269.9999999999946
 51
0.0000000000049629
  0
ARC
  5
8A
330
1F
100
AcDbEntity
  8
99-model
100
AcDbCircle
 10
63.00000000000102
 20
10183.0
 30
0.0
 40
62.99999999999818
100
AcDbArc
 50
179.9999999999984
 51
270.0000000000003
  0
LINE
  5
8B
330
1F
100
AcDbEntity
  8
99-model
100
AcDbLine
 10
900.0000000000014
 20
11857.0
 30
0.0
 11
900.0000000000014
 21
10183.0
 31
0.0
  0
LINE
  5
8C
330
1F
100
AcDbEntity
  8
99-model
100
AcDbLine
 10
0.0000000000013642
 20
10183.0
 30
0.0
 11
0.0000000000013642
 21
11857.0
 31
0.0
  0
LINE
  5
8D
330
1F
100
AcDbEntity
  8
99-model
100
AcDbLine
 10
63.00000000000136
 20
11920.0
 30
0.0
 11
837.0000000000014
 21
11920.0
 31
0.0
  0
ARC
  5
8E
330
1F
100
AcDbEntity
  8
99-model
100
AcDbCircle
 10
837.0000000000009
 20
11857.0
 30
0.0
 40
63.0
100
AcDbArc
 50
0.0
 51
89.99999999999959
  0
ARC
  5
8F
330
1F
100
AcDbEntity
  8
99-model
100
AcDbCircle
 10
63.0
 20
11857.0
 30
0.0
 40
62.99999999999864
100
AcDbArc
 50
89.99999999999876
 51
180.0000000000016
  0
LINE
  5
90
330
1F
100
AcDbEntity
  8
99-model
100
AcDbLine
 10
1449.953318805397
 20
12420.0
 30
0.0
 11
1400.790687586179
 21
12420.0
 31
0.0
  0
SPLINE
  5
91
330
1F
100
AcDbEntity
  8
99-model
100
AcDbSpline
210
0.0
220
0.0
230
1.0
 70
     8
 71
     3
 72
    10
 73
     6
 74
     0
 42
0.000000001
 43
0.0000000001
 40
0.0
 40
0.0
 40
0.0
 40
0.0
 40
6.144667443985142
 40
6.144667443985142
 40
12.29667374199338
 40
12.29667374199338
 40
12.29667374199338
 40
12.29667374199338
 10
1395.044822825907
 20
12421.508302891
 30
0.0
 10
1395.596020879389
 20
12421.04490491479
 30
0.0
 10
1396.354693766903
 20
12420.66454239508
 30
0.0
 10
1398.286842782861
 20
12420.14014635684
 30
0.0
 10
1399.447953292508
 20
12420.0
 30
0.0
 10
1400.79068758618
 20
12420.0
 30
0.0
  0
SPLINE
  5
92
330
1F
100
AcDbEntity
  8
99-model
100
AcDbSpline
210
0.0
220
0.0
230
1.0
 70
     8
 71
     3
 72
    21
 73
    17
 74
     0
 42
0.000000001
 43
0.0000000001
 40
0.0
 40
0.0
 40
0.0
 40
0.0
 40
4.420151095957478
 40
8.789109185509952
 40
17.1830636666543
 40
21.22002088887449
 40
25.03207203263675
 40
28.59563948871633
 40
32.20624583208568
 40
32.20624583208568
 40
32.20624583208568
 40
45.33054932512251
 40
45.33054932512251
 40
51.88817769061789
 40
51.88817769061789
 40
58.44560663932568
 40
58.44560663932568
 40
58.44560663932568
 40
58.44560663932568
 10
1384.476659402699
 20
12464.99999999987
 30
0.0
 10
1384.476770766018
 20
12463.52664931966
 30
0.0
 10
1384.521821939727
 20
12460.59684259354
 30
0.0
 10
1384.789741808696
 20
12454.87489270504
 30
0.0
 10
1385.312882039988
 20
12449.296311579
 30
0.0
 10
1386.104429779279
 20
12443.93910396038
 30
0.0
 10
1386.804914876531
 20
12440.19924591106
 30
0.0
 10
1387.628220526147
 20
12436.62998886411
 30
0.0
 10
1388.278705859121
 20
12434.32788931131
 30
0.0
 10
1388.641174559542
 20
12433.18019484647
 30
0.0
 10
1389.550657144219
 20
12430.30179070458
 30
0.0
 10
1390.56430819143
 20
12427.87449304418
 30
0.0
 10
1392.184687980818
 20
12424.94622297336
 30
0.0
 10
1392.74081769334
 20
12424.089807715
 30
0.0
 10
1393.877093751793
 20
12422.61780428296
 30
0.0
 10
1394.457038825292
 20
12422.00245918704
 30
0.0
 10
1395.044822825906
 20
12421.508302891
 30
0.0
  0
SPLINE
  5
93
330
1F
100
AcDbEntity
  8
99-model
100
AcDbSpline
210
0.0
220
0.0
230
1.0
 70
     8
 71
     3
 72
    21
 73
    17
 74
     0
 42
0.000000001
 43
0.0000000001
 40
0.0
 40
0.0
 40
0.0
 40
0.0
 40
6.557428948705361
 40
6.557428948705361
 40
13.11505731422018
 40
13.11505731422018
 40
26.23936080734062
 40
26.23936080734062
 40
26.23936080734062
 40
31.12662826554966
 40
35.58830338360443
 40
44.59193379820967
 40
49.15738469835755
 40
53.49365183077357
 40
57.76991292387982
 40
62.23379733761113
 40
62.23379733761113
 40
62.23379733761113
 40
62.23379733761113
 10
1429.694949390967
 20
12421.50830289096
 30
0.0
 10
1427.651919406202
 20
12422.002459187
 30
0.0
 10
1425.636136102404
 20
12422.61780428292
 30
0.0
 10
1421.686647759792
 20
12424.08980771496
 30
0.0
 10
1419.753642307262
 20
12424.94622297331
 30
0.0
 10
1414.121497687824
 20
12427.87449304416
 30
0.0
 10
1410.598231519706
 20
12430.30179070455
 30
0.0
 10
1407.437035928829
 20
12433.18019484647
 30
0.0
 10
1406.232367765978
 20
12434.27677668557
 30
0.0
 10
1404.036454547743
 20
12436.49427495844
 30
0.0
 10
1400.187771651766
 20
12441.25836471268
 30
0.0
 10
1397.136966134933
 20
12446.47372840098
 30
0.0
 10
1394.971427052219
 20
12452.04524574058
 30
0.0
 10
1393.819986013462
 20
12456.29025277305
 30
0.0
 10
1393.120918286705
 20
12460.59873277217
 30
0.0
 10
1392.961891748887
 20
12463.51200833034
 30
0.0
 10
1392.961940776979
 20
12464.99999999987
 30
0.0
  0
ARC
  5
94
330
1F
100
AcDbEntity
  8
99-model
100
AcDbCircle
 10
1441.434666217178
 20
12466.00534541771
 30
0.0
 40
46.01964520491907
100
AcDbArc
 50
255.2203536687405
 51
268.571625688211
  0
LINE
  5
95
330
1F
100
AcDbEntity
  8
99-model
100
AcDbLine
 10
818.9999999999895
 20
12420.0
 30
0.0
 11
868.1626312192079
 21
12420.0
 31
0.0
  0
SPLINE
  5
96
330
1F
100
AcDbEntity
  8
99-model
100
AcDbSpline
210
0.0
220
0.0
230
1.0
 70
     8
 71
     3
 72
    10
 73
     6
 74
     0
 42
0.000000001
 43
0.0000000001
 40
0.0
 40
0.0
 40
0.0
 40
0.0
 40
6.144667443985142
 40
6.144667443985142
 40
12.29667374199338
 40
12.29667374199338
 40
12.29667374199338
 40
12.29667374199338
 10
873.9084959794804
 20
12421.50830289099
 30
0.0
 10
873.3572979259975
 20
12421.04490491479
 30
0.0
 10
872.5986250384835
 20
12420.66454239508
 30
0.0
 10
870.6664760225262
 20
12420.14014635684
 30
0.0
 10
869.505365512879
 20
12420.0
 30
0.0
 10
868.1626312192075
 20
12420.0
 30
0.0
  0
SPLINE
  5
97
330
1F
100
AcDbEntity
  8
99-model
100
AcDbSpline
210
0.0
220
0.0
230
1.0
 70
     8
 71
     3
 72
    21
 73
    17
 74
     0
 42
0.000000001
 43
0.0000000001
 40
0.0
 40
0.0
 40
0.0
 40
0.0
 40
4.420151095957478
 40
8.789109185509952
 40
17.1830636666543
 40
21.22002088887449
 40
25.03207203263675
 40
28.59563948871633
 40
32.20624583208568
 40
32.20624583208568
 40
32.20624583208568
 40
45.33054932512251
 40
45.33054932512251
 40
51.88817769061789
 40
51.88817769061789
 40
58.44560663932568
 40
58.44560663932568
 40
58.44560663932568
 40
58.44560663932568
 10
884.4766594026883
 20
12464.99999999987
 30
0.0
 10
884.4765480393689
 20
12463.52664931966
 30
0.0
 10
884.4314968656599
 20
12460.59684259354
 30
0.0
 10
884.1635769966911
 20
12454.87489270504
 30
0.0
 10
883.6404367653986
 20
12449.29631157899
 30
0.0
 10
882.8488890261087
 20
12443.93910396038
 30
0.0
 10
882.1484039288557
 20
12440.19924591106
 30
0.0
 10
881.3250982792401
 20
12436.62998886411
 30
0.0
 10
880.6746129462663
 20
12434.32788931131
 30
0.0
 10
880.3121442458446
 20
12433.18019484647
 30
0.0
 10
879.4026616611677
 20
12430.30179070458
 30
0.0
 10
878.3890106139575
 20
12427.87449304418
 30
0.0
 10
876.7686308245688
 20
12424.94622297335
 30
0.0
 10
876.2125011120474
 20
12424.08980771499
 30
0.0
 10
875.076225053594
 20
12422.61780428296
 30
0.0
 10
874.4962799800946
 20
12422.00245918704
 30
0.0
 10
873.9084959794814
 20
12421.50830289099
 30
0.0
  0
SPLINE
  5
98
330
1F
100
AcDbEntity
  8
99-model
100
AcDbSpline
210
0.0
220
0.0
230
1.0
 70
     8
 71
     3
 72
    21
 73
    17
 74
     0
 42
0.000000001
 43
0.0000000001
 40
0.0
 40
0.0
 40
0.0
 40
0.0
 40
6.557428948705361
 40
6.557428948705361
 40
13.11505731422018
 40
13.11505731422018
 40
26.23936080734062
 40
26.23936080734062
 40
26.23936080734062
 40
31.12662826554966
 40
35.58830338360443
 40
44.59193379820967
 40
49.15738469835755
 40
53.49365183077357
 40
57.76991292387982
 40
62.23379733761113
 40
62.23379733761113
 40
62.23379733761113
 40
62.23379733761113
 10
839.25836941442
 20
12421.50830289096
 30
0.0
 10
841.3013993991849
 20
12422.002459187
 30
0.0
 10
843.3171827029832
 20
12422.61780428292
 30
0.0
 10
847.2666710455946
 20
12424.08980771496
 30
0.0
 10
849.1996764981254
 20
12424.94622297331
 30
0.0
 10
854.8318211175633
 20
12427.87449304416
 30
0.0
 10
858.3550872856808
 20
12430.30179070455
 30
0.0
 10
861.5162828765583
 20
12433.18019484647
 30
0.0
 10
862.7209510394096
 20
12434.27677668557
 30
0.0
 10
864.9168642576433
 20
12436.49427495844
 30
0.0
 10
868.7655471536214
 20
12441.25836471268
 30
0.0
 10
871.8163526704543
 20
12446.47372840098
 30
0.0
 10
873.9818917531675
 20
12452.04524574058
 30
0.0
 10
875.1333327919247
 20
12456.29025277305
 30
0.0
 10
875.8324005186823
 20
12460.59873277217
 30
0.0
 10
875.9914270565005
 20
12463.51200833034
 30
0.0
 10
875.9913780284082
 20
12464.99999999987
 30
0.0
  0
ARC
  5
99
330
1F
100
AcDbEntity
  8
99-model
100
AcDbCircle
 10
827.5186525881999
 20
12466.00534541782
 30
0.0
 40
46.0196452050375
100
AcDbArc
 50
271.4283743117967
 51
284.7796463312324
  0
LINE
  5
9A
330
1F
100
AcDbEntity
  8
99-model
100
AcDbLine
 10
900.0000000000023
 20
13180.0
 30
0.0
 11
0.000000000001819
 21
13180.0
 31
0.0
  0
LINE
  5
9B
330
1F
100
AcDbEntity
  8
99-model
100
AcDbLine
 10
872.0000000009504
 20
13152.0
 30
0.0
 11
28.00063513487521
 21
13152.0
 31
0.0
  0
LINE
  5
9C
330
1F
100
AcDbEntity
  8
99-model
100
AcDbLine
 10
81.0000000000141
 20
12420.0
 30
0.0
 11
31.83736878079571
 21
12420.0
 31
0.0
  0
SPLINE
  5
9D
330
1F
100
AcDbEntity
  8
99-model
100
AcDbSpline
210
0.0
220
0.0
230
1.0
 70
     8
 71
     3
 72
    10
 73
     6
 74
     0
 42
0.000000001
 43
0.0000000001
 40
0.0
 40
0.0
 40
0.0
 40
0.0
 40
6.144667443985142
 40
6.144667443985142
 40
12.29667374199338
 40
12.29667374199338
 40
12.29667374199338
 40
12.29667374199338
 10
26.09150402052319
 20
12421.50830289099
 30
0.0
 10
26.64270207400614
 20
12421.04490491479
 30
0.0
 10
27.4013749615201
 20
12420.66454239508
 30
0.0
 10
29.3335239774774
 20
12420.14014635684
 30
0.0
 10
30.49463448712459
 20
12420.0
 30
0.0
 10
31.83736878079617
 20
12420.0
 30
0.0
  0
LINE
  5
9E
330
1F
100
AcDbEntity
  8
99-model
100
AcDbLine
 10
1392.961940776986
 20
13107.00000000013
 30
0.0
 11
1392.961940776983
 21
12464.99999999987
 31
0.0
  0
SPLINE
  5
9F
330
1F
100
AcDbEntity
  8
99-model
100
AcDbSpline
210
0.0
220
0.0
230
1.0
 70
     8
 71
     3
 72
    19
 73
    15
 74
     0
 42
0.000000001
 43
0.0000000001
 40
0.0
 40
0.0
 40
0.0
 40
0.0
 40
4.428040217445176
 40
8.851774976039625
 40
17.67072116941093
 40
26.64549492702112
 40
35.99443750328926
 40
35.99443750328926
 40
35.99443750328926
 40
49.1187409963261
 40
49.1187409963261
 40
55.67636936182148
 40
55.67636936182148
 40
62.23379831052927
 40
62.23379831052927
 40
62.23379831052927
 40
62.23379831052927
 10
1392.961940776986
 20
13107.00000000013
 30
0.0
 10
1392.961768095919
 20
13108.47608738973
 30
0.0
 10
1393.121903509034
 20
13111.42644145016
 30
0.0
 10
1394.071288977427
 20
13117.24861922255
 30
0.0
 10
1396.425745908144
 20
13124.31341907564
 30
0.0
 10
1401.021628259697
 20
13132.16225228214
 30
0.0
 10
1405.132798379625
 20
13136.7219878926
 30
0.0
 10
1407.43703592891
 20
13138.81980515353
 30
0.0
 10
1410.59823151976
 20
13141.69820929542
 30
0.0
 10
1414.121497687908
 20
13144.12550695582
 30
0.0
 10
1419.753642307299
 20
13147.05377702665
 30
0.0
 10
1421.68664775983
 20
13147.910192285
 30
0.0
 10
1425.63613610242
 20
13149.38219571704
 30
0.0
 10
1427.651919406208
 20
13149.99754081296
 30
0.0
 10
1429.694949390965
 20
13150.49169710901
 30
0.0
  0
SPLINE
  5
A0
330
1F
100
AcDbEntity
  8
99-model
100
AcDbSpline
210
0.0
220
0.0
230
1.0
 70
     8
 71
     3
 72
    20
 73
    16
 74
     0
 42
0.000000001
 43
0.0000000001
 40
0.0
 40
0.0
 40
0.0
 40
0.0
 40
6.557428948705361
 40
6.557428948705361
 40
13.11505731422018
 40
13.11505731422018
 40
26.23936080734062
 40
26.23936080734062
 40
26.23936080734062
 40
29.84996715070794
 40
33.41353460678928
 40
37.22558575055264
 40
41.28906030959549
 40
49.76579758255271
 40
58.44560653988773
 40
58.44560653988773
 40
58.44560653988773
 40
58.44560653988773
 10
1395.044822825905
 20
13150.49169710904
 30
0.0
 10
1394.45703882529
 20
13149.997540813
 30
0.0
 10
1393.877093751788
 20
13149.38219571708
 30
0.0
 10
1392.740817693329
 20
13147.91019228504
 30
0.0
 10
1392.184687980807
 20
13147.05377702669
 30
0.0
 10
1390.564308191405
 20
13144.12550695584
 30
0.0
 10
1389.550657144197
 20
13141.69820929545
 30
0.0
 10
1388.641174559513
 20
13138.81980515353
 30
0.0
 10
1388.278711108647
 20
13137.67210672179
 30
0.0
 10
1387.62821001541
 20
13135.37001908254
 30
0.0
 10
1386.804929001821
 20
13131.80074339462
 30
0.0
 10
1386.102780324906
 20
13128.05222307387
 30
0.0
 10
1385.306664874612
 20
13122.65880349817
 30
0.0
 10
1384.649657345934
 20
13115.61212122179
 30
0.0
 10
1384.47677235475
 20
13109.89329541337
 30
0.0
 10
1384.47665940269
 20
13107.00000000013
 30
0.0
  0
LINE
  5
A1
330
1F
100
AcDbEntity
  8
99-model
100
AcDbLine
 10
1384.47665940269
 20
13107.00000000013
 30
0.0
 11
1384.476659402691
 21
12464.99999999987
 31
0.0
  0
SPLINE
  5
A2
330
1F
100
AcDbEntity
  8
99-model
100
AcDbSpline
210
0.0
220
0.0
230
1.0
 70
     8
 71
     3
 72
    10
 73
     6
 74
     0
 42
0.000000001
 43
0.0000000001
 40
-12.07811836103351
 40
-12.07811836103351
 40
-12.07811836103351
 40
-12.07811836103351
 40
-6.144668176903346
 40
-6.144668176903346
 40
0.0
 40
0.0
 40
0.0
 40
0.0
 10
1400.648270349187
 20
13151.99947016642
 30
0.0
 10
1399.365699252746
 20
13151.98988805222
 30
0.0
 10
1398.252501435143
 20
13151.85053320954
 30
0.0
 10
1396.35469376685
 20
13151.33545760493
 30
0.0
 10
1395.596020879349
 20
13150.95509508522
 30
0.0
 10
1395.044822825905
 20
13150.49169710904
 30
0.0
  0
ARC
  5
A3
330
1F
100
AcDbEntity
  8
99-model
100
AcDbCircle
 10
1441.540357299874
 20
13105.36777670561
 30
0.0
 40
46.65277999327308
100
AcDbArc
 50
91.7178311905609
 51
104.7087538750345
  0
LINE
  5
A4
330
1F
100
AcDbEntity
  8
99-model
100
AcDbLine
 10
1447.008258439015
 20
13152.0
 30
0.0
 11
1447.008258439013
 21
13092.0
 31
0.0
  0
ARC
  5
A5
330
1F
100
AcDbEntity
  8
99-model
100
AcDbCircle
 10
1396.953318804513
 20
13179.99999999913
 30
0.0
 40
27.99999999912848
100
AcDbArc
 50
179.9999999982134
 51
269.9999999998851
  0
LINE
  5
A6
330
1F
100
AcDbEntity
  8
99-model
100
AcDbLine
 10
1449.953318805397
 20
13092.0
 30
0.0
 11
1449.953318805397
 21
12420.0
 31
0.0
  0
LINE
  5
A7
330
1F
100
AcDbEntity
  8
99-model
100
AcDbLine
 10
78.05493963194704
 20
13092.0
 30
0.0
 11
821.945060368057
 21
13092.0
 31
0.0
  0
LINE
  5
A8
330
1F
100
AcDbEntity
  8
99-model
100
AcDbLine
 10
884.4766594026928
 20
13107.00000000013
 30
0.0
 11
884.4766594026873
 21
12464.99999999987
 31
0.0
  0
SPLINE
  5
A9
330
1F
100
AcDbEntity
  8
99-model
100
AcDbSpline
210
0.0
220
0.0
230
1.0
 70
     8
 71
     3
 72
    21
 73
    17
 74
     0
 42
0.000000001
 43
0.0000000001
 40
0.0
 40
0.0
 40
0.0
 40
0.0
 40
4.420151095957939
 40
8.78910918550911
 40
17.18306366665449
 40
21.22002088887438
 40
25.03207203263755
 40
28.59563948871766
 40
32.20624583208686
 40
32.20624583208686
 40
32.20624583208686
 40
45.33054932512369
 40
45.33054932512369
 40
51.88817769061907
 40
51.88817769061907
 40
58.44560663932686
 40
58.44560663932686
 40
58.44560663932686
 40
58.44560663932686
 10
884.4766594026928
 20
13107.00000000013
 30
0.0
 10
884.4765480393667
 20
13108.47335068033
 30
0.0
 10
884.4314968656608
 20
13111.40315740646
 30
0.0
 10
884.1635769966861
 20
13117.12510729495
 30
0.0
 10
883.6404367654045
 20
13122.703688421
 30
0.0
 10
882.8488890261096
 20
13128.06089603961
 30
0.0
 10
882.1484039288571
 20
13131.80075408894
 30
0.0
 10
881.325098279241
 20
13135.37001113589
 30
0.0
 10
880.6746129462672
 20
13137.67211068869
 30
0.0
 10
880.3121442458464
 20
13138.81980515353
 30
0.0
 10
879.4026616611677
 20
13141.69820929542
 30
0.0
 10
878.3890106139575
 20
13144.12550695582
 30
0.0
 10
876.7686308245679
 20
13147.05377702665
 30
0.0
 10
876.2125011120465
 20
13147.91019228501
 30
0.0
 10
875.0762250535913
 20
13149.38219571704
 30
0.0
 10
874.4962799800937
 20
13149.99754081296
 30
0.0
 10
873.9084959794795
 20
13150.49169710901
 30
0.0
  0
SPLINE
  5
AA
330
1F
100
AcDbEntity
  8
99-model
100
AcDbSpline
210
0.0
220
0.0
230
1.0
 70
     8
 71
     3
 72
    21
 73
    17
 74
     0
 42
0.000000001
 43
0.0000000001
 40
0.0
 40
0.0
 40
0.0
 40
0.0
 40
6.557428948705361
 40
6.557428948705361
 40
13.11505731422018
 40
13.11505731422018
 40
26.23936080734062
 40
26.23936080734062
 40
26.23936080734062
 40
31.12662826555038
 40
35.58830338360519
 40
44.59193379821018
 40
49.15738469835816
 40
53.49365183077377
 40
57.76991292388023
 40
62.23379733761248
 40
62.23379733761248
 40
62.23379733761248
 40
62.23379733761248
 10
839.2583694144182
 20
13150.49169710904
 30
0.0
 10
841.3013993991822
 20
13149.997540813
 30
0.0
 10
843.3171827029823
 20
13149.38219571708
 30
0.0
 10
847.2666710455937
 20
13147.91019228504
 30
0.0
 10
849.1996764981236
 20
13147.05377702669
 30
0.0
 10
854.8318211175615
 20
13144.12550695584
 30
0.0
 10
858.3550872856799
 20
13141.69820929545
 30
0.0
 10
861.5162828765565
 20
13138.81980515353
 30
0.0
 10
862.7209510394068
 20
13137.72322331443
 30
0.0
 10
864.9168642576324
 20
13135.50572504156
 30
0.0
 10
868.7655471536168
 20
13130.74163528732
 30
0.0
 10
871.8163526704434
 20
13125.52627159901
 30
0.0
 10
873.9818917531666
 20
13119.95475425942
 30
0.0
 10
875.1333327919174
 20
13115.70974722695
 30
0.0
 10
875.832400518681
 20
13111.40126722783
 30
0.0
 10
875.9914270564996
 20
13108.48799166966
 30
0.0
 10
875.9913780284073
 20
13107.00000000013
 30
0.0
  0
LINE
  5
AB
330
1F
100
AcDbEntity
  8
99-model
100
AcDbLine
 10
875.9913780284073
 20
13107.00000000013
 30
0.0
 11
875.9913780284073
 21
12464.99999999987
 31
0.0
  0
ARC
  5
AC
330
1F
100
AcDbEntity
  8
99-model
100
AcDbCircle
 10
827.3882172908445
 20
13105.23142241146
 30
0.0
 40
46.7909497353612
100
AcDbArc
 50
75.30433341376464
 51
88.20023197006415
  0
SPLINE
  5
AD
330
1F
100
AcDbEntity
  8
99-model
100
AcDbSpline
210
0.0
220
0.0
230
1.0
 70
     8
 71
     3
 72
    10
 73
     6
 74
     0
 42
0.000000001
 43
0.0000000001
 40
0.0
 40
0.0
 40
0.0
 40
0.0
 40
6.144667443985142
 40
6.144667443985142
 40
12.07812270369638
 40
12.07812270369638
 40
12.07812270369638
 40
12.07812270369638
 10
873.9084959794795
 20
13150.49169710901
 30
0.0
 10
873.3572979259966
 20
13150.95509508521
 30
0.0
 10
872.5986250384826
 20
13151.33545760492
 30
0.0
 10
870.7008164614472
 20
13151.85053345617
 30
0.0
 10
869.5876173824936
 20
13151.98988832388
 30
0.0
 10
868.3050455673992
 20
13151.99947019444
 30
0.0
  0
LINE
  5
AE
330
1F
100
AcDbEntity
  8
99-model
100
AcDbLine
 10
821.9450603664427
 20
13092.0
 30
0.0
 11
821.9450603664304
 21
13152.0
 31
0.0
  0
SPLINE
  5
AF
330
1F
100
AcDbEntity
  8
99-model
100
AcDbSpline
210
0.0
220
0.0
230
1.0
 70
     8
 71
     3
 72
    21
 73
    17
 74
     0
 42
0.000000001
 43
0.0000000001
 40
0.0
 40
0.0
 40
0.0
 40
0.0
 40
4.420151095957478
 40
8.789109185509952
 40
17.1830636666543
 40
21.22002088887449
 40
25.03207203263675
 40
28.59563948871633
 40
32.20624583208568
 40
32.20624583208568
 40
32.20624583208568
 40
45.33054932512251
 40
45.33054932512251
 40
51.88817769061789
 40
51.88817769061789
 40
58.44560663932568
 40
58.44560663932568
 40
58.44560663932568
 40
58.44560663932568
 10
15.52334059731538
 20
12464.99999999987
 30
0.0
 10
15.5234519606347
 20
12463.52664931966
 30
0.0
 10
15.5685031343437
 20
12460.59684259354
 30
0.0
 10
15.83642300331258
 20
12454.87489270504
 30
0.0
 10
16.35956323460505
 20
12449.29631157899
 30
0.0
 10
17.1511109738949
 20
12443.93910396038
 30
0.0
 10
17.85159607114792
 20
12440.19924591106
 30
0.0
 10
18.6749017207635
 20
12436.62998886411
 30
0.0
 10
19.32538705373736
 20
12434.32788931131
 30
0.0
 10
19.68785575415905
 20
12433.18019484647
 30
0.0
 10
20.59733833883593
 20
12430.30179070458
 30
0.0
 10
21.61098938604619
 20
12427.87449304418
 30
0.0
 10
23.23136917543479
 20
12424.94622297335
 30
0.0
 10
23.78749888795619
 20
12424.08980771499
 30
0.0
 10
24.92377494640959
 20
12422.61780428296
 30
0.0
 10
25.503720019909
 20
12422.00245918704
 30
0.0
 10
26.09150402052228
 20
12421.50830289099
 30
0.0
  0
LINE
  5
B0
330
1F
100
AcDbEntity
  8
99-model
100
AcDbLine
 10
15.52334059730993
 20
13107.00000000013
 30
0.0
 11
15.52334059731538
 21
12464.99999999987
 31
0.0
  0
SPLINE
  5
B1
330
1F
100
AcDbEntity
  8
99-model
100
AcDbSpline
210
0.0
220
0.0
230
1.0
 70
     8
 71
     3
 72
    21
 73
    17
 74
     0
 42
0.000000001
 43
0.0000000001
 40
0.0
 40
0.0
 40
0.0
 40
0.0
 40
4.420151095957948
 40
8.789109185509037
 40
17.18306366665445
 40
21.22002088887433
 40
25.03207203263767
 40
28.59563948871769
 40
32.20624583208705
 40
32.20624583208705
 40
32.20624583208705
 40
45.33054932512388
 40
45.33054932512388
 40
51.88817769061927
 40
51.88817769061927
 40
58.44560663932705
 40
58.44560663932705
 40
58.44560663932705
 40
58.44560663932705
 10
15.52334059730993
 20
13107.00000000013
 30
0.0
 10
15.52345196063061
 20
13108.47335068033
 30
0.0
 10
15.56850313434188
 20
13111.40315740645
 30
0.0
 10
15.83642300330803
 20
13117.12510729496
 30
0.0
 10
16.35956323460096
 20
13122.703688421
 30
0.0
 10
17.15111097389263
 20
13128.06089603961
 30
0.0
 10
17.85159607114838
 20
13131.80075408894
 30
0.0
 10
18.67490172076259
 20
13135.37001113589
 30
0.0
 10
19.32538705373418
 20
13137.67211068869
 30
0.0
 10
19.68785575415723
 20
13138.81980515353
 30
0.0
 10
20.59733833883502
 20
13141.69820929542
 30
0.0
 10
21.61098938604528
 20
13144.12550695582
 30
0.0
 10
23.23136917543479
 20
13147.05377702665
 30
0.0
 10
23.78749888795619
 20
13147.91019228501
 30
0.0
 10
24.92377494641141
 20
13149.38219571704
 30
0.0
 10
25.503720019909
 20
13149.99754081296
 30
0.0
 10
26.09150402052319
 20
13150.49169710901
 30
0.0
  0
SPLINE
  5
B2
330
1F
100
AcDbEntity
  8
99-model
100
AcDbSpline
210
0.0
220
0.0
230
1.0
 70
     8
 71
     3
 72
    21
 73
    17
 74
     0
 42
0.000000001
 43
0.0000000001
 40
0.0
 40
0.0
 40
0.0
 40
0.0
 40
6.557428948705361
 40
6.557428948705361
 40
13.11505731422018
 40
13.11505731422018
 40
26.23936080734062
 40
26.23936080734062
 40
26.23936080734062
 40
31.12662826554966
 40
35.58830338360443
 40
44.59193379820967
 40
49.15738469835755
 40
53.49365183077357
 40
57.76991292387982
 40
62.23379733761113
 40
62.23379733761113
 40
62.23379733761113
 40
62.23379733761113
 10
60.74163058558361
 20
12421.50830289096
 30
0.0
 10
58.69860060081874
 20
12422.002459187
 30
0.0
 10
56.68281729702039
 20
12422.61780428292
 30
0.0
 10
52.73332895440899
 20
12424.08980771496
 30
0.0
 10
50.80032350187821
 20
12424.94622297331
 30
0.0
 10
45.16817888244032
 20
12427.87449304416
 30
0.0
 10
41.6449127143228
 20
12430.30179070455
 30
0.0
 10
38.48371712344533
 20
12433.18019484647
 30
0.0
 10
37.27904896059408
 20
12434.27677668557
 30
0.0
 10
35.08313574236035
 20
12436.49427495844
 30
0.0
 10
31.23445284638228
 20
12441.25836471268
 30
0.0
 10
28.18364732954933
 20
12446.47372840098
 30
0.0
 10
26.01810824683616
 20
12452.04524574058
 30
0.0
 10
24.86666720807898
 20
12456.29025277305
 30
0.0
 10
24.1675994813213
 20
12460.59873277217
 30
0.0
 10
24.00857294350317
 20
12463.51200833034
 30
0.0
 10
24.0086219715954
 20
12464.99999999987
 30
0.0
  0
SPLINE
  5
B3
330
1F
100
AcDbEntity
  8
99-model
100
AcDbSpline
210
0.0
220
0.0
230
1.0
 70
     8
 71
     3
 72
    21
 73
    17
 74
     0
 42
0.000000001
 43
0.0000000001
 40
0.0
 40
0.0
 40
0.0
 40
0.0
 40
6.557428948705361
 40
6.557428948705361
 40
13.11505731422018
 40
13.11505731422018
 40
26.23936080734062
 40
26.23936080734062
 40
26.23936080734062
 40
31.12662826555069
 40
35.58830338360464
 40
44.59193379820995
 40
49.15738469835813
 40
53.49365183077352
 40
57.76991292388007
 40
62.23379733761236
 40
62.23379733761236
 40
62.23379733761236
 40
62.23379733761236
 10
60.74163058558452
 20
13150.49169710904
 30
0.0
 10
58.69860060082055
 20
13149.997540813
 30
0.0
 10
56.68281729702039
 20
13149.38219571708
 30
0.0
 10
52.73332895440899
 20
13147.91019228504
 30
0.0
 10
50.80032350187912
 20
13147.05377702669
 30
0.0
 10
45.16817888244123
 20
13144.12550695584
 30
0.0
 10
41.6449127143228
 20
13141.69820929545
 30
0.0
 10
38.48371712344624
 20
13138.81980515353
 30
0.0
 10
37.27904896059954
 20
13137.72322331443
 30
0.0
 10
35.08313574235626
 20
13135.50572504156
 30
0.0
 10
31.23445284638501
 20
13130.74163528732
 30
0.0
 10
28.18364732955069
 20
13125.52627159902
 30
0.0
 10
26.01810824683344
 20
13119.95475425943
 30
0.0
 10
24.8666672080758
 20
13115.70974722695
 30
0.0
 10
24.1675994813213
 20
13111.40126722784
 30
0.0
 10
24.00857294349953
 20
13108.48799166966
 30
0.0
 10
24.0086219715954
 20
13107.00000000013
 30
0.0
  0
LINE
  5
B4
330
1F
100
AcDbEntity
  8
99-model
100
AcDbLine
 10
24.0086219715954
 20
13107.00000000013
 30
0.0
 11
24.0086219715954
 21
12464.99999999987
 31
0.0
  0
ARC
  5
B5
330
1F
100
AcDbEntity
  8
99-model
100
AcDbCircle
 10
72.6117827091582
 20
13105.23142241146
 30
0.0
 40
46.7909497353594
100
AcDbArc
 50
91.79976802993649
 51
104.695666586236
  0
SPLINE
  5
B6
330
1F
100
AcDbEntity
  8
99-model
100
AcDbSpline
210
0.0
220
0.0
230
1.0
 70
     8
 71
     3
 72
    10
 73
     6
 74
     0
 42
0.000000001
 43
0.0000000001
 40
0.0
 40
0.0
 40
0.0
 40
0.0
 40
6.144667443985142
 40
6.144667443985142
 40
12.07811824883808
 40
12.07811824883808
 40
12.07811824883808
 40
12.07811824883808
 10
26.09150402052319
 20
13150.49169710901
 30
0.0
 10
26.64270207400614
 20
13150.95509508521
 30
0.0
 10
27.4013749615201
 20
13151.33545760492
 30
0.0
 10
29.29918283857342
 20
13151.8505332662
 30
0.0
 10
30.41238094592291
 20
13151.98988811463
 30
0.0
 10
31.69495154372589
 20
13151.99947017285
 30
0.0
  0
ARC
  5
B7
330
1F
100
AcDbEntity
  8
99-model
100
AcDbCircle
 10
72.481347411804
 20
12466.00534541783
 30
0.0
 40
46.01964520503932
100
AcDbArc
 50
255.2203536687679
 51
268.571625688203
  0
LINE
  5
B8
330
1F
100
AcDbEntity
  8
99-model
100
AcDbLine
 10
78.05493963356002
 20
13092.0
 30
0.0
 11
78.0549396335723
 21
13152.0
 31
0.0
  0
ARC
  5
B9
330
1F
100
AcDbEntity
  8
99-model
100
AcDbCircle
 10
872.0000000008896
 20
13179.99999999911
 30
0.0
 40
27.99999999911233
100
AcDbArc
 50
270.0000000001254
 51
0.000000001816413
  0
ARC
  5
BA
330
1F
100
AcDbEntity
  8
99-model
100
AcDbCircle
 10
27.99999999920585
 20
13179.99999999921
 30
0.0
 40
27.9999999992051
100
AcDbArc
 50
179.9999999983734
 51
269.9999999997277
  0
LINE
  5
BB
330
1F
100
AcDbEntity
  8
99-model
100
AcDbLine
 10
818.9999999999891
 20
12420.0
 30
0.0
 11
818.9999999999891
 21
13092.0
 31
0.0
  0
LINE
  5
BC
330
1F
100
AcDbEntity
  8
99-model
100
AcDbLine
 10
81.0000000000141
 20
13092.0
 30
0.0
 11
81.0000000000141
 21
12420.0
 31
0.0
  0
LINE
  5
BD
330
1F
100
AcDbEntity
  8
99-model
100
AcDbLine
 10
837.0000000000014
 20
9620.0
 30
0.0
 11
63.00000000000136
 21
9620.0
 31
0.0
  0
ARC
  5
BE
330
1F
100
AcDbEntity
  8
99-model
100
AcDbCircle
 10
837.0000000000041
 20
9682.999999999996
 30
0.0
 40
62.99999999999727
100
AcDbArc
 50
269.9999999999975
 51
0.0000000000033086
  0
ARC
  5
BF
330
1F
100
AcDbEntity
  8
99-model
100
AcDbCircle
 10
63.00000000000102
 20
9682.999999999998
 30
0.0
 40
62.99999999999818
100
AcDbArc
 50
179.9999999999984
 51
270.0000000000003
  0
LINE
  5
C0
330
1F
100
AcDbEntity
  8
99-model
100
AcDbLine
 10
1447.008258439012
 20
8032.0
 30
0.0
 11
3590.898379171756
 21
8032.0
 31
0.0
  0
LINE
  5
C1
330
1F
100
AcDbEntity
  8
99-model
100
AcDbLine
 10
1946.953673865557
 20
8092.0
 30
0.0
 11
1946.953673865557
 21
8032.0
 31
0.0
  0
LINE
  5
C2
330
1F
100
AcDbEntity
  8
99-model
100
AcDbLine
 10
3668.953318805384
 20
8120.0
 30
0.0
 11
1368.953318805384
 21
8120.0
 31
0.0
  0
LINE
  5
C3
330
1F
100
AcDbEntity
  8
99-model
100
AcDbLine
 10
1396.953318804456
 20
8092.0
 30
0.0
 11
3637.906831606886
 21
8092.0
 31
0.0
  0
ARC
  5
C4
330
1F
100
AcDbEntity
  8
99-model
100
AcDbCircle
 10
1840.953318806255
 20
8119.999999999128
 30
0.0
 40
27.9999999991287
100
AcDbArc
 50
270.0000000001153
 51
0.0000000017847746
  0
ARC
  5
C5
330
1F
100
AcDbEntity
  8
99-model
100
AcDbCircle
 10
1896.953318804513
 20
8119.999999999129
 30
0.0
 40
27.9999999991287
100
AcDbArc
 50
179.9999999982171
 51
269.9999999998846
  0
LINE
  5
C6
330
1F
100
AcDbEntity
  8
99-model
100
AcDbLine
 10
3587.953318805372
 20
7360.0
 30
0.0
 11
3637.11595002459
 21
7360.0
 31
0.0
  0
SPLINE
  5
C7
330
1F
100
AcDbEntity
  8
99-model
100
AcDbSpline
210
0.0
220
0.0
230
1.0
 70
     8
 71
     3
 72
    10
 73
     6
 74
     0
 42
0.000000001
 43
0.0000000001
 40
0.0
 40
0.0
 40
0.0
 40
0.0
 40
6.144667443985142
 40
6.144667443985142
 40
12.29667374199338
 40
12.29667374199338
 40
12.29667374199338
 40
12.29667374199338
 10
3642.861814784863
 20
7361.508302890995
 30
0.0
 10
3642.31061673138
 20
7361.044904914786
 30
0.0
 10
3641.551943843866
 20
7360.664542395077
 30
0.0
 10
3639.619794827908
 20
7360.140146356836
 30
0.0
 10
3638.458684318261
 20
7359.999999999998
 30
0.0
 10
3637.115950024589
 20
7360.000000000001
 30
0.0
  0
SPLINE
  5
C8
330
1F
100
AcDbEntity
  8
99-model
100
AcDbSpline
210
0.0
220
0.0
230
1.0
 70
     8
 71
     3
 72
    21
 73
    17
 74
     0
 42
0.000000001
 43
0.0000000001
 40
0.0
 40
0.0
 40
0.0
 40
0.0
 40
4.420151095957478
 40
8.789109185509952
 40
17.1830636666543
 40
21.22002088887449
 40
25.03207203263675
 40
28.59563948871633
 40
32.20624583208568
 40
32.20624583208568
 40
32.20624583208568
 40
45.33054932512251
 40
45.33054932512251
 40
51.88817769061789
 40
51.88817769061789
 40
58.44560663932568
 40
58.44560663932568
 40
58.44560663932568
 40
58.44560663932568
 10
3653.429978208071
 20
7404.999999999866
 30
0.0
 10
3653.429866844751
 20
7403.526649319662
 30
0.0
 10
3653.384815671042
 20
7400.596842593536
 30
0.0
 10
3653.116895802073
 20
7394.874892705039
 30
0.0
 10
3652.593755570781
 20
7389.296311578994
 30
0.0
 10
3651.802207831491
 20
7383.939103960381
 30
0.0
 10
3651.101722734238
 20
7380.199245911054
 30
0.0
 10
3650.278417084623
 20
7376.629988864111
 30
0.0
 10
3649.627931751648
 20
7374.32788931131
 30
0.0
 10
3649.265463051226
 20
7373.180194846472
 30
0.0
 10
3648.355980466549
 20
7370.301790704581
 30
0.0
 10
3647.34232941934
 20
7367.874493044184
 30
0.0
 10
3645.721949629951
 20
7364.946222973355
 30
0.0
 10
3645.165819917429
 20
7364.089807714995
 30
0.0
 10
3644.029543858976
 20
7362.617804282956
 30
0.0
 10
3643.449598785477
 20
7362.002459187034
 30
0.0
 10
3642.861814784863
 20
7361.508302890995
 30
0.0
  0
SPLINE
  5
C9
330
1F
100
AcDbEntity
  8
99-model
100
AcDbSpline
210
0.0
220
0.0
230
1.0
 70
     8
 71
     3
 72
    21
 73
    17
 74
     0
 42
0.000000001
 43
0.0000000001
 40
0.0
 40
0.0
 40
0.0
 40
0.0
 40
6.557428948705361
 40
6.557428948705361
 40
13.11505731422018
 40
13.11505731422018
 40
26.23936080734062
 40
26.23936080734062
 40
26.23936080734062
 40
31.12662826554966
 40
35.58830338360443
 40
44.59193379820967
 40
49.15738469835755
 40
53.49365183077357
 40
57.76991292387982
 40
62.23379733761113
 40
62.23379733761113
 40
62.23379733761113
 40
62.23379733761113
 10
3608.211688219802
 20
7361.508302890958
 30
0.0
 10
3610.254718204567
 20
7362.002459186996
 30
0.0
 10
3612.270501508365
 20
7362.617804282917
 30
0.0
 10
3616.219989850977
 20
7364.089807714957
 30
0.0
 10
3618.152995303508
 20
7364.946222973314
 30
0.0
 10
3623.785139922946
 20
7367.874493044163
 30
0.0
 10
3627.308406091062
 20
7370.301790704548
 30
0.0
 10
3630.46960168194
 20
7373.180194846469
 30
0.0
 10
3631.674269844792
 20
7374.276776685569
 30
0.0
 10
3633.870183063025
 20
7376.494274958436
 30
0.0
 10
3637.718865959003
 20
7381.25836471268
 30
0.0
 10
3640.769671475837
 20
7386.473728400982
 30
0.0
 10
3642.935210558549
 20
7392.045245740581
 30
0.0
 10
3644.086651597307
 20
7396.29025277305
 30
0.0
 10
3644.785719324064
 20
7400.598732772165
 30
0.0
 10
3644.944745861882
 20
7403.51200833034
 30
0.0
 10
3644.944696833791
 20
7404.999999999866
 30
0.0
  0
ARC
  5
CA
330
1F
100
AcDbEntity
  8
99-model
100
AcDbCircle
 10
3596.47197139366
 20
7406.005345417248
 30
0.0
 40
46.01964520446094
100
AcDbArc
 50
271.4283743117177
 51
284.7796463313215
  0
LINE
  5
CB
330
1F
100
AcDbEntity
  8
99-model
100
AcDbLine
 10
3644.944696833783
 20
8047.000000000134
 30
0.0
 11
3644.944696833785
 21
7404.999999999866
 31
0.0
  0
SPLINE
  5
CC
330
1F
100
AcDbEntity
  8
99-model
100
AcDbSpline
210
0.0
220
0.0
230
1.0
 70
     8
 71
     3
 72
    19
 73
    15
 74
     0
 42
0.000000001
 43
0.0000000001
 40
0.0
 40
0.0
 40
0.0
 40
0.0
 40
4.42804021744519
 40
8.851774976039685
 40
17.67072116941104
 40
26.64549492702106
 40
35.99443750328912
 40
35.99443750328912
 40
35.99443750328912
 40
49.11874099632595
 40
49.11874099632595
 40
55.67636936182134
 40
55.67636936182134
 40
62.23379831052912
 40
62.23379831052912
 40
62.23379831052912
 40
62.23379831052912
 10
3644.944696833783
 20
8047.000000000134
 30
0.0
 10
3644.944869514853
 20
8048.476087389728
 30
0.0
 10
3644.784734101739
 20
8051.426441450157
 30
0.0
 10
3643.835348633344
 20
8057.248619222549
 30
0.0
 10
3641.480891702622
 20
8064.313419075628
 30
0.0
 10
3636.885009351074
 20
8072.162252282143
 30
0.0
 10
3632.773839231146
 20
8076.721987892595
 30
0.0
 10
3630.46960168186
 20
8078.819805153529
 30
0.0
 10
3627.308406091009
 20
8081.698209295419
 30
0.0
 10
3623.78513992286
 20
8084.125506955816
 30
0.0
 10
3618.152995303471
 20
8087.053777026646
 30
0.0
 10
3616.21998985094
 20
8087.910192285004
 30
0.0
 10
3612.270501508348
 20
8089.382195717044
 30
0.0
 10
3610.254718204561
 20
8089.997540812965
 30
0.0
 10
3608.211688219803
 20
8090.491697109006
 30
0.0
  0
SPLINE
  5
CD
330
1F
100
AcDbEntity
  8
99-model
100
AcDbSpline
210
0.0
220
0.0
230
1.0
 70
     8
 71
     3
 72
    20
 73
    16
 74
     0
 42
0.000000001
 43
0.0000000001
 40
0.0
 40
0.0
 40
0.0
 40
0.0
 40
6.557428948705361
 40
6.557428948705361
 40
13.11505731422018
 40
13.11505731422018
 40
26.23936080734062
 40
26.23936080734062
 40
26.23936080734062
 40
29.84996715070789
 40
33.41353460678939
 40
37.22558575055261
 40
41.28906030959548
 40
49.76579758255271
 40
58.44560653988774
 40
58.44560653988774
 40
58.44560653988774
 40
58.44560653988774
 10
3642.861814784864
 20
8090.491697109041
 30
0.0
 10
3643.449598785479
 20
8089.997540813004
 30
0.0
 10
3644.029543858981
 20
8089.382195717083
 30
0.0
 10
3645.16581991744
 20
8087.910192285043
 30
0.0
 10
3645.721949629961
 20
8087.053777026686
 30
0.0
 10
3647.342329419364
 20
8084.125506955837
 30
0.0
 10
3648.355980466572
 20
8081.698209295452
 30
0.0
 10
3649.265463051256
 20
8078.819805153531
 30
0.0
 10
3649.627926502122
 20
8077.672106721795
 30
0.0
 10
3650.278427595359
 20
8075.370019082531
 30
0.0
 10
3651.101708608949
 20
8071.80074339463
 30
0.0
 10
3651.803857285862
 20
8068.05222307386
 30
0.0
 10
3652.599972736156
 20
8062.658803498165
 30
0.0
 10
3653.256980264836
 20
8055.612121221797
 30
0.0
 10
3653.429865256019
 20
8049.893295413382
 30
0.0
 10
3653.429978208079
 20
8047.000000000133
 30
0.0
  0
LINE
  5
CE
330
1F
100
AcDbEntity
  8
99-model
100
AcDbLine
 10
3653.429978208079
 20
8047.000000000133
 30
0.0
 11
3653.429978208077
 21
7404.999999999867
 31
0.0
  0
SPLINE
  5
CF
330
1F
100
AcDbEntity
  8
99-model
100
AcDbSpline
210
0.0
220
0.0
230
1.0
 70
     8
 71
     3
 72
    10
 73
     6
 74
     0
 42
0.000000001
 43
0.0000000001
 40
-12.07811836103281
 40
-12.07811836103281
 40
-12.07811836103281
 40
-12.07811836103281
 40
-6.144668176903346
 40
-6.144668176903346
 40
0.0
 40
0.0
 40
0.0
 40
0.0
 10
3637.258367261583
 20
8091.999470166418
 30
0.0
 10
3638.540938358023
 20
8091.989888052224
 30
0.0
 10
3639.654136175626
 20
8091.850533209545
 30
0.0
 10
3641.551943843919
 20
8091.335457604929
 30
0.0
 10
3642.310616731421
 20
8090.955095085224
 30
0.0
 10
3642.861814784864
 20
8090.491697109041
 30
0.0
  0
ARC
  5
D0
330
1F
100
AcDbEntity
  8
99-model
100
AcDbCircle
 10
3596.366280310927
 20
8045.367776705781
 30
0.0
 40
46.65277999309669
100
AcDbArc
 50
75.29124612495045
 51
88.28216880947197
  0
LINE
  5
D1
330
1F
100
AcDbEntity
  8
99-model
100
AcDbLine
 10
3590.898379171755
 20
8092.0
 30
0.0
 11
3590.898379171756
 21
8032.0
 31
0.0
  0
LINE
  5
D2
330
1F
100
AcDbEntity
  8
99-model
100
AcDbLine
 10
3640.952683670512
 20
8092.0
 30
0.0
 11
3637.906831606886
 21
8092.0
 31
0.0
  0
ARC
  5
D3
330
1F
100
AcDbEntity
  8
99-model
100
AcDbCircle
 10
3640.953318806192
 20
8119.999999999191
 30
0.0
 40
27.99999999919146
100
AcDbArc
 50
270.0000000002884
 51
0.0000000016544991
  0
LINE
  5
D4
330
1F
100
AcDbEntity
  8
99-model
100
AcDbLine
 10
3587.953318805371
 20
7360.0
 30
0.0
 11
3587.953318805371
 21
8032.0
 31
0.0
  0
LINE
  5
D5
330
1F
100
AcDbEntity
  8
99-model
100
AcDbLine
 10
450.0000000000014
 20
8120.0
 30
0.0
 11
450.0003175679121
 21
8092.0
 31
0.0
  0
LINE
  5
D6
330
1F
100
AcDbEntity
  8
99-model
100
AcDbLine
 10
0.0000000000011369
 20
4997.0
 30
0.0
 11
0.0000000000011369
 21
4623.0
 31
0.0
  0
LINE
  5
D7
330
1F
100
AcDbEntity
  8
99-model
100
AcDbLine
 10
900.0000000000007
 20
4997.0
 30
0.0
 11
900.0000000000007
 21
4623.0
 31
0.0
  0
LINE
  5
D8
330
1F
100
AcDbEntity
  8
99-model
100
AcDbLine
 10
450.0000000000007
 20
5060.0
 30
0.0
 11
450.0000000000007
 21
4560.0
 31
0.0
  0
ARC
  5
D9
330
1F
100
AcDbEntity
  8
99-model
100
AcDbCircle
 10
63.00000000000043
 20
4997.000000000001
 30
0.0
 40
62.99999999999909
100
AcDbArc
 50
89.99999999999977
 51
180.0000000000008
  0
ARC
  5
DA
330
1F
100
AcDbEntity
  8
99-model
100
AcDbCircle
 10
836.9999999999976
 20
4996.999999999996
 30
0.0
 40
63.00000000000307
100
AcDbArc
 50
0.0000000000033086
 51
89.99999999999721
  0
LINE
  5
DB
330
1F
100
AcDbEntity
  8
99-model
100
AcDbLine
 10
837.0000000000007
 20
5060.0
 30
0.0
 11
63.00000000000068
 21
5060.0
 31
0.0
  0
ARC
  5
DC
330
1F
100
AcDbEntity
  8
99-model
100
AcDbCircle
 10
837.0000000000041
 20
5122.999999999996
 30
0.0
 40
62.99999999999659
100
AcDbArc
 50
269.9999999999969
 51
0.0000000000033086
  0
ARC
  5
DD
330
1F
100
AcDbEntity
  8
99-model
100
AcDbCircle
 10
63.00000000000043
 20
5122.999999999999
 30
0.0
 40
62.99999999999909
100
AcDbArc
 50
179.9999999999992
 51
270.0000000000002
  0
LINE
  5
DE
330
1F
100
AcDbEntity
  8
99-model
100
AcDbLine
 10
900.0000000000007
 20
6797.0
 30
0.0
 11
900.0000000000007
 21
5123.0
 31
0.0
  0
LINE
  5
DF
330
1F
100
AcDbEntity
  8
99-model
100
AcDbLine
 10
0.0000000000006821
 20
5123.0
 30
0.0
 11
0.0000000000006821
 21
6797.0
 31
0.0
  0
LINE
  5
E0
330
1F
100
AcDbEntity
  8
99-model
100
AcDbLine
 10
63.00000000000068
 20
6860.0
 30
0.0
 11
837.0000000000007
 21
6860.0
 31
0.0
  0
ARC
  5
E1
330
1F
100
AcDbEntity
  8
99-model
100
AcDbCircle
 10
837.0000000000018
 20
6797.000000000001
 30
0.0
 40
62.99999999999909
100
AcDbArc
 50
359.9999999999992
 51
90.00000000000104
  0
ARC
  5
E2
330
1F
100
AcDbEntity
  8
99-model
100
AcDbCircle
 10
62.99999999999955
 20
6797.000000000002
 30
0.0
 40
62.99999999999886
100
AcDbArc
 50
89.99999999999896
 51
180.0000000000016
  0
LINE
  5
E3
330
1F
100
AcDbEntity
  8
99-model
100
AcDbLine
 10
1449.953318805397
 20
7360.000000000001
 30
0.0
 11
1400.790687586178
 21
7360.000000000001
 31
0.0
  0
SPLINE
  5
E4
330
1F
100
AcDbEntity
  8
99-model
100
AcDbSpline
210
0.0
220
0.0
230
1.0
 70
     8
 71
     3
 72
    10
 73
     6
 74
     0
 42
0.000000001
 43
0.0000000001
 40
0.0
 40
0.0
 40
0.0
 40
0.0
 40
6.144667443985142
 40
6.144667443985142
 40
12.29667374199338
 40
12.29667374199338
 40
12.29667374199338
 40
12.29667374199338
 10
1395.044822825906
 20
7361.508302890996
 30
0.0
 10
1395.596020879389
 20
7361.044904914786
 30
0.0
 10
1396.354693766903
 20
7360.664542395078
 30
0.0
 10
1398.28684278286
 20
7360.140146356837
 30
0.0
 10
1399.447953292507
 20
7359.999999999999
 30
0.0
 10
1400.790687586179
 20
7360.000000000002
 30
0.0
  0
SPLINE
  5
E5
330
1F
100
AcDbEntity
  8
99-model
100
AcDbSpline
210
0.0
220
0.0
230
1.0
 70
     8
 71
     3
 72
    21
 73
    17
 74
     0
 42
0.000000001
 43
0.0000000001
 40
0.0
 40
0.0
 40
0.0
 40
0.0
 40
4.420151095957478
 40
8.789109185509952
 40
17.1830636666543
 40
21.22002088887449
 40
25.03207203263675
 40
28.59563948871633
 40
32.20624583208568
 40
32.20624583208568
 40
32.20624583208568
 40
45.33054932512251
 40
45.33054932512251
 40
51.88817769061789
 40
51.88817769061789
 40
58.44560663932568
 40
58.44560663932568
 40
58.44560663932568
 40
58.44560663932568
 10
1384.476659402698
 20
7404.999999999867
 30
0.0
 10
1384.476770766018
 20
7403.526649319663
 30
0.0
 10
1384.521821939727
 20
7400.596842593537
 30
0.0
 10
1384.789741808695
 20
7394.87489270504
 30
0.0
 10
1385.312882039987
 20
7389.296311578995
 30
0.0
 10
1386.104429779278
 20
7383.939103960382
 30
0.0
 10
1386.804914876531
 20
7380.199245911055
 30
0.0
 10
1387.628220526146
 20
7376.629988864112
 30
0.0
 10
1388.27870585912
 20
7374.327889311311
 30
0.0
 10
1388.641174559542
 20
7373.180194846473
 30
0.0
 10
1389.550657144219
 20
7370.301790704582
 30
0.0
 10
1390.564308191429
 20
7367.874493044184
 30
0.0
 10
1392.184687980817
 20
7364.946222973356
 30
0.0
 10
1392.740817693339
 20
7364.089807714996
 30
0.0
 10
1393.877093751792
 20
7362.617804282957
 30
0.0
 10
1394.457038825292
 20
7362.002459187035
 30
0.0
 10
1395.044822825905
 20
7361.508302890996
 30
0.0
  0
SPLINE
  5
E6
330
1F
100
AcDbEntity
  8
99-model
100
AcDbSpline
210
0.0
220
0.0
230
1.0
 70
     8
 71
     3
 72
    21
 73
    17
 74
     0
 42
0.000000001
 43
0.0000000001
 40
0.0
 40
0.0
 40
0.0
 40
0.0
 40
6.557428948705361
 40
6.557428948705361
 40
13.11505731422018
 40
13.11505731422018
 40
26.23936080734062
 40
26.23936080734062
 40
26.23936080734062
 40
31.12662826554966
 40
35.58830338360443
 40
44.59193379820967
 40
49.15738469835755
 40
53.49365183077357
 40
57.76991292387982
 40
62.23379733761113
 40
62.23379733761113
 40
62.23379733761113
 40
62.23379733761113
 10
1429.694949390966
 20
7361.508302890959
 30
0.0
 10
1427.651919406201
 20
7362.002459186997
 30
0.0
 10
1425.636136102403
 20
7362.617804282918
 30
0.0
 10
1421.686647759792
 20
7364.089807714958
 30
0.0
 10
1419.753642307261
 20
7364.946222973314
 30
0.0
 10
1414.121497687823
 20
7367.874493044164
 30
0.0
 10
1410.598231519705
 20
7370.301790704549
 30
0.0
 10
1407.437035928828
 20
7373.18019484647
 30
0.0
 10
1406.232367765977
 20
7374.27677668557
 30
0.0
 10
1404.036454547743
 20
7376.494274958437
 30
0.0
 10
1400.187771651765
 20
7381.258364712681
 30
0.0
 10
1397.136966134932
 20
7386.473728400983
 30
0.0
 10
1394.971427052218
 20
7392.045245740582
 30
0.0
 10
1393.819986013461
 20
7396.290252773051
 30
0.0
 10
1393.120918286704
 20
7400.598732772166
 30
0.0
 10
1392.961891748886
 20
7403.512008330341
 30
0.0
 10
1392.961940776978
 20
7404.999999999867
 30
0.0
  0
ARC
  5
E7
330
1F
100
AcDbEntity
  8
99-model
100
AcDbCircle
 10
1441.434666217106
 20
7406.005345417237
 30
0.0
 40
46.01964520444816
100
AcDbArc
 50
255.2203536686772
 51
268.5716256882845
  0
LINE
  5
E8
330
1F
100
AcDbEntity
  8
99-model
100
AcDbLine
 10
818.9999999999889
 20
7360.0
 30
0.0
 11
868.1626312192072
 21
7360.0
 31
0.0
  0
SPLINE
  5
E9
330
1F
100
AcDbEntity
  8
99-model
100
AcDbSpline
210
0.0
220
0.0
230
1.0
 70
     8
 71
     3
 72
    10
 73
     6
 74
     0
 42
0.000000001
 43
0.0000000001
 40
0.0
 40
0.0
 40
0.0
 40
0.0
 40
6.144667443985142
 40
6.144667443985142
 40
12.29667374199338
 40
12.29667374199338
 40
12.29667374199338
 40
12.29667374199338
 10
873.9084959794798
 20
7361.508302890995
 30
0.0
 10
873.3572979259968
 20
7361.044904914786
 30
0.0
 10
872.5986250384829
 20
7360.664542395077
 30
0.0
 10
870.6664760225256
 20
7360.140146356836
 30
0.0
 10
869.5053655128784
 20
7359.999999999998
 30
0.0
 10
868.1626312192068
 20
7360.000000000001
 30
0.0
  0
SPLINE
  5
EA
330
1F
100
AcDbEntity
  8
99-model
100
AcDbSpline
210
0.0
220
0.0
230
1.0
 70
     8
 71
     3
 72
    21
 73
    17
 74
     0
 42
0.000000001
 43
0.0000000001
 40
0.0
 40
0.0
 40
0.0
 40
0.0
 40
4.420151095957478
 40
8.789109185509952
 40
17.1830636666543
 40
21.22002088887449
 40
25.03207203263675
 40
28.59563948871633
 40
32.20624583208568
 40
32.20624583208568
 40
32.20624583208568
 40
45.33054932512251
 40
45.33054932512251
 40
51.88817769061789
 40
51.88817769061789
 40
58.44560663932568
 40
58.44560663932568
 40
58.44560663932568
 40
58.44560663932568
 10
884.4766594026876
 20
7404.999999999866
 30
0.0
 10
884.4765480393683
 20
7403.526649319662
 30
0.0
 10
884.4314968656593
 20
7400.596842593536
 30
0.0
 10
884.1635769966904
 20
7394.874892705039
 30
0.0
 10
883.6404367653979
 20
7389.296311578994
 30
0.0
 10
882.848889026108
 20
7383.939103960381
 30
0.0
 10
882.148403928855
 20
7380.199245911054
 30
0.0
 10
881.3250982792395
 20
7376.629988864111
 30
0.0
 10
880.6746129462656
 20
7374.32788931131
 30
0.0
 10
880.3121442458439
 20
7373.180194846472
 30
0.0
 10
879.402661661167
 20
7370.301790704581
 30
0.0
 10
878.3890106139568
 20
7367.874493044184
 30
0.0
 10
876.7686308245682
 20
7364.946222973355
 30
0.0
 10
876.2125011120468
 20
7364.089807714995
 30
0.0
 10
875.0762250535934
 20
7362.617804282956
 30
0.0
 10
874.496279980094
 20
7362.002459187034
 30
0.0
 10
873.9084959794807
 20
7361.508302890995
 30
0.0
  0
SPLINE
  5
EB
330
1F
100
AcDbEntity
  8
99-model
100
AcDbSpline
210
0.0
220
0.0
230
1.0
 70
     8
 71
     3
 72
    21
 73
    17
 74
     0
 42
0.000000001
 43
0.0000000001
 40
0.0
 40
0.0
 40
0.0
 40
0.0
 40
6.557428948705361
 40
6.557428948705361
 40
13.11505731422018
 40
13.11505731422018
 40
26.23936080734062
 40
26.23936080734062
 40
26.23936080734062
 40
31.12662826554966
 40
35.58830338360443
 40
44.59193379820967
 40
49.15738469835755
 40
53.49365183077357
 40
57.76991292387982
 40
62.23379733761113
 40
62.23379733761113
 40
62.23379733761113
 40
62.23379733761113
 10
839.2583694144193
 20
7361.508302890958
 30
0.0
 10
841.3013993991842
 20
7362.002459186996
 30
0.0
 10
843.3171827029826
 20
7362.617804282917
 30
0.0
 10
847.266671045594
 20
7364.089807714957
 30
0.0
 10
849.1996764981247
 20
7364.946222973314
 30
0.0
 10
854.8318211175626
 20
7367.874493044163
 30
0.0
 10
858.3550872856802
 20
7370.301790704548
 30
0.0
 10
861.5162828765576
 20
7373.180194846469
 30
0.0
 10
862.7209510394089
 20
7374.276776685569
 30
0.0
 10
864.9168642576426
 20
7376.494274958436
 30
0.0
 10
868.7655471536207
 20
7381.25836471268
 30
0.0
 10
871.8163526704536
 20
7386.473728400982
 30
0.0
 10
873.9818917531668
 20
7392.045245740581
 30
0.0
 10
875.133332791924
 20
7396.29025277305
 30
0.0
 10
875.8324005186817
 20
7400.598732772165
 30
0.0
 10
875.9914270564998
 20
7403.51200833034
 30
0.0
 10
875.9913780284076
 20
7404.999999999866
 30
0.0
  0
ARC
  5
EC
330
1F
100
AcDbEntity
  8
99-model
100
AcDbCircle
 10
827.5186525882791
 20
7406.005345417235
 30
0.0
 40
46.01964520444725
100
AcDbArc
 50
271.4283743117155
 51
284.7796463313234
  0
LINE
  5
ED
330
1F
100
AcDbEntity
  8
99-model
100
AcDbLine
 10
900.0000000000016
 20
8120.0
 30
0.0
 11
0.0000000000011369
 21
8120.0
 31
0.0
  0
LINE
  5
EE
330
1F
100
AcDbEntity
  8
99-model
100
AcDbLine
 10
872.0000000009497
 20
8092.0
 30
0.0
 11
28.00063513487453
 21
8092.0
 31
0.0
  0
LINE
  5
EF
330
1F
100
AcDbEntity
  8
99-model
100
AcDbLine
 10
81.00000000001342
 20
7360.0
 30
0.0
 11
31.83736878079503
 21
7360.0
 31
0.0
  0
SPLINE
  5
F0
330
1F
100
AcDbEntity
  8
99-model
100
AcDbSpline
210
0.0
220
0.0
230
1.0
 70
     8
 71
     3
 72
    10
 73
     6
 74
     0
 42
0.000000001
 43
0.0000000001
 40
0.0
 40
0.0
 40
0.0
 40
0.0
 40
6.144667443985142
 40
6.144667443985142
 40
12.29667374199338
 40
12.29667374199338
 40
12.29667374199338
 40
12.29667374199338
 10
26.09150402052251
 20
7361.508302890995
 30
0.0
 10
26.64270207400546
 20
7361.044904914786
 30
0.0
 10
27.40137496151942
 20
7360.664542395077
 30
0.0
 10
29.33352397747672
 20
7360.140146356836
 30
0.0
 10
30.4946344871239
 20
7359.999999999998
 30
0.0
 10
31.83736878079549
 20
7360.000000000001
 30
0.0
  0
LINE
  5
F1
330
1F
100
AcDbEntity
  8
99-model
100
AcDbLine
 10
1392.961940776985
 20
8047.000000000134
 30
0.0
 11
1392.961940776983
 21
7404.999999999866
 31
0.0
  0
SPLINE
  5
F2
330
1F
100
AcDbEntity
  8
99-model
100
AcDbSpline
210
0.0
220
0.0
230
1.0
 70
     8
 71
     3
 72
    19
 73
    15
 74
     0
 42
0.000000001
 43
0.0000000001
 40
0.0
 40
0.0
 40
0.0
 40
0.0
 40
4.428040217445176
 40
8.851774976039625
 40
17.67072116941093
 40
26.64549492702112
 40
35.99443750328926
 40
35.99443750328926
 40
35.99443750328926
 40
49.1187409963261
 40
49.1187409963261
 40
55.67636936182148
 40
55.67636936182148
 40
62.23379831052927
 40
62.23379831052927
 40
62.23379831052927
 40
62.23379831052927
 10
1392.961940776985
 20
8047.000000000134
 30
0.0
 10
1392.961768095918
 20
8048.476087389728
 30
0.0
 10
1393.121903509034
 20
8051.426441450159
 30
0.0
 10
1394.071288977426
 20
8057.248619222551
 30
0.0
 10
1396.425745908143
 20
8064.313419075636
 30
0.0
 10
1401.021628259696
 20
8072.162252282139
 30
0.0
 10
1405.132798379624
 20
8076.721987892597
 30
0.0
 10
1407.437035928909
 20
8078.819805153529
 30
0.0
 10
1410.598231519759
 20
8081.698209295419
 30
0.0
 10
1414.121497687908
 20
8084.125506955816
 30
0.0
 10
1419.753642307298
 20
8087.053777026646
 30
0.0
 10
1421.686647759829
 20
8087.910192285004
 30
0.0
 10
1425.636136102419
 20
8089.382195717044
 30
0.0
 10
1427.651919406207
 20
8089.997540812965
 30
0.0
 10
1429.694949390964
 20
8090.491697109006
 30
0.0
  0
SPLINE
  5
F3
330
1F
100
AcDbEntity
  8
99-model
100
AcDbSpline
210
0.0
220
0.0
230
1.0
 70
     8
 71
     3
 72
    20
 73
    16
 74
     0
 42
0.000000001
 43
0.0000000001
 40
0.0
 40
0.0
 40
0.0
 40
0.0
 40
6.557428948705361
 40
6.557428948705361
 40
13.11505731422018
 40
13.11505731422018
 40
26.23936080734062
 40
26.23936080734062
 40
26.23936080734062
 40
29.84996715070794
 40
33.41353460678928
 40
37.22558575055264
 40
41.28906030959549
 40
49.76579758255271
 40
58.44560653988773
 40
58.44560653988773
 40
58.44560653988773
 40
58.44560653988773
 10
1395.044822825904
 20
8090.491697109041
 30
0.0
 10
1394.457038825289
 20
8089.997540813004
 30
0.0
 10
1393.877093751788
 20
8089.382195717083
 30
0.0
 10
1392.740817693328
 20
8087.910192285043
 30
0.0
 10
1392.184687980807
 20
8087.053777026686
 30
0.0
 10
1390.564308191404
 20
8084.125506955837
 30
0.0
 10
1389.550657144196
 20
8081.698209295452
 30
0.0
 10
1388.641174559513
 20
8078.819805153531
 30
0.0
 10
1388.278711108647
 20
8077.672106721787
 30
0.0
 10
1387.62821001541
 20
8075.370019082539
 30
0.0
 10
1386.80492900182
 20
8071.80074339462
 30
0.0
 10
1386.102780324906
 20
8068.05222307387
 30
0.0
 10
1385.306664874611
 20
8062.658803498167
 30
0.0
 10
1384.649657345934
 20
8055.612121221795
 30
0.0
 10
1384.47677235475
 20
8049.893295413373
 30
0.0
 10
1384.476659402689
 20
8047.000000000133
 30
0.0
  0
LINE
  5
F4
330
1F
100
AcDbEntity
  8
99-model
100
AcDbLine
 10
1384.476659402689
 20
8047.000000000133
 30
0.0
 11
1384.476659402691
 21
7404.999999999867
 31
0.0
  0
SPLINE
  5
F5
330
1F
100
AcDbEntity
  8
99-model
100
AcDbSpline
210
0.0
220
0.0
230
1.0
 70
     8
 71
     3
 72
    10
 73
     6
 74
     0
 42
0.000000001
 43
0.0000000001
 40
-12.07811836103351
 40
-12.07811836103351
 40
-12.07811836103351
 40
-12.07811836103351
 40
-6.144668176903346
 40
-6.144668176903346
 40
0.0
 40
0.0
 40
0.0
 40
0.0
 10
1400.648270349186
 20
8091.999470166418
 30
0.0
 10
1399.365699252745
 20
8091.989888052224
 30
0.0
 10
1398.252501435142
 20
8091.850533209545
 30
0.0
 10
1396.354693766849
 20
8091.335457604929
 30
0.0
 10
1395.596020879348
 20
8090.955095085224
 30
0.0
 10
1395.044822825904
 20
8090.491697109041
 30
0.0
  0
ARC
  5
F6
330
1F
100
AcDbEntity
  8
99-model
100
AcDbCircle
 10
1441.540357299873
 20
8045.367776705612
 30
0.0
 40
46.65277999326781
100
AcDbArc
 50
91.7178311905611
 51
104.7087538750363
  0
LINE
  5
F7
330
1F
100
AcDbEntity
  8
99-model
100
AcDbLine
 10
1447.008258439014
 20
8092.0
 30
0.0
 11
1447.008258439012
 21
8032.0
 31
0.0
  0
ARC
  5
F8
330
1F
100
AcDbEntity
  8
99-model
100
AcDbCircle
 10
1396.953318804513
 20
8119.999999999129
 30
0.0
 40
27.99999999912893
100
AcDbArc
 50
179.9999999982171
 51
269.9999999998842
  0
LINE
  5
F9
330
1F
100
AcDbEntity
  8
99-model
100
AcDbLine
 10
1449.953318805397
 20
8032.0
 30
0.0
 11
1449.953318805397
 21
7360.0
 31
0.0
  0
LINE
  5
FA
330
1F
100
AcDbEntity
  8
99-model
100
AcDbLine
 10
78.05493963194635
 20
8032.0
 30
0.0
 11
821.9450603680564
 21
8032.0
 31
0.0
  0
LINE
  5
FB
330
1F
100
AcDbEntity
  8
99-model
100
AcDbLine
 10
884.4766594026921
 20
8047.000000000134
 30
0.0
 11
884.4766594026867
 21
7404.999999999866
 31
0.0
  0
SPLINE
  5
FC
330
1F
100
AcDbEntity
  8
99-model
100
AcDbSpline
210
0.0
220
0.0
230
1.0
 70
     8
 71
     3
 72
    21
 73
    17
 74
     0
 42
0.000000001
 43
0.0000000001
 40
0.0
 40
0.0
 40
0.0
 40
0.0
 40
4.420151095957939
 40
8.78910918550911
 40
17.18306366665449
 40
21.22002088887438
 40
25.03207203263755
 40
28.59563948871766
 40
32.20624583208686
 40
32.20624583208686
 40
32.20624583208686
 40
45.33054932512369
 40
45.33054932512369
 40
51.88817769061907
 40
51.88817769061907
 40
58.44560663932686
 40
58.44560663932686
 40
58.44560663932686
 40
58.44560663932686
 10
884.4766594026921
 20
8047.000000000134
 30
0.0
 10
884.476548039366
 20
8048.473350680334
 30
0.0
 10
884.4314968656602
 20
8051.40315740646
 30
0.0
 10
884.1635769966854
 20
8057.125107294952
 30
0.0
 10
883.6404367654038
 20
8062.703688421
 30
0.0
 10
882.848889026109
 20
8068.060896039612
 30
0.0
 10
882.1484039288564
 20
8071.800754088943
 30
0.0
 10
881.3250982792404
 20
8075.370011135889
 30
0.0
 10
880.6746129462665
 20
8077.672110688693
 30
0.0
 10
880.3121442458457
 20
8078.819805153528
 30
0.0
 10
879.402661661167
 20
8081.698209295418
 30
0.0
 10
878.3890106139568
 20
8084.125506955816
 30
0.0
 10
876.7686308245673
 20
8087.053777026645
 30
0.0
 10
876.2125011120459
 20
8087.910192285005
 30
0.0
 10
875.0762250535906
 20
8089.382195717044
 30
0.0
 10
874.496279980093
 20
8089.997540812965
 30
0.0
 10
873.9084959794789
 20
8090.491697109005
 30
0.0
  0
SPLINE
  5
FD
330
1F
100
AcDbEntity
  8
99-model
100
AcDbSpline
210
0.0
220
0.0
230
1.0
 70
     8
 71
     3
 72
    21
 73
    17
 74
     0
 42
0.000000001
 43
0.0000000001
 40
0.0
 40
0.0
 40
0.0
 40
0.0
 40
6.557428948705361
 40
6.557428948705361
 40
13.11505731422018
 40
13.11505731422018
 40
26.23936080734062
 40
26.23936080734062
 40
26.23936080734062
 40
31.12662826555038
 40
35.58830338360519
 40
44.59193379821018
 40
49.15738469835816
 40
53.49365183077377
 40
57.76991292388023
 40
62.23379733761248
 40
62.23379733761248
 40
62.23379733761248
 40
62.23379733761248
 10
839.2583694144175
 20
8090.491697109041
 30
0.0
 10
841.3013993991815
 20
8089.997540813004
 30
0.0
 10
843.3171827029817
 20
8089.382195717083
 30
0.0
 10
847.2666710455931
 20
8087.910192285043
 30
0.0
 10
849.1996764981229
 20
8087.053777026686
 30
0.0
 10
854.8318211175608
 20
8084.125506955837
 30
0.0
 10
858.3550872856792
 20
8081.698209295452
 30
0.0
 10
861.5162828765558
 20
8078.81980515353
 30
0.0
 10
862.7209510394061
 20
8077.723223314431
 30
0.0
 10
864.9168642576317
 20
8075.505725041555
 30
0.0
 10
868.7655471536161
 20
8070.741635287318
 30
0.0
 10
871.8163526704427
 20
8065.526271599011
 30
0.0
 10
873.9818917531659
 20
8059.954754259419
 30
0.0
 10
875.1333327919167
 20
8055.709747226944
 30
0.0
 10
875.8324005186803
 20
8051.401267227834
 30
0.0
 10
875.9914270564989
 20
8048.48799166966
 30
0.0
 10
875.9913780284066
 20
8047.000000000133
 30
0.0
  0
LINE
  5
FE
330
1F
100
AcDbEntity
  8
99-model
100
AcDbLine
 10
875.9913780284066
 20
8047.000000000133
 30
0.0
 11
875.9913780284066
 21
7404.999999999867
 31
0.0
  0
ARC
  5
FF
330
1F
100
AcDbEntity
  8
99-model
100
AcDbCircle
 10
827.3882172908495
 20
8045.231422411532
 30
0.0
 40
46.79094973529193
100
AcDbArc
 50
75.30433341374962
 51
88.20023197006846
  0
SPLINE
  5
100
330
1F
100
AcDbEntity
  8
99-model
100
AcDbSpline
210
0.0
220
0.0
230
1.0
 70
     8
 71
     3
 72
    10
 73
     6
 74
     0
 42
0.000000001
 43
0.0000000001
 40
0.0
 40
0.0
 40
0.0
 40
0.0
 40
6.144667443985142
 40
6.144667443985142
 40
12.07812270369638
 40
12.07812270369638
 40
12.07812270369638
 40
12.07812270369638
 10
873.9084959794789
 20
8090.491697109005
 30
0.0
 10
873.3572979259959
 20
8090.955095085214
 30
0.0
 10
872.5986250384819
 20
8091.335457604923
 30
0.0
 10
870.7008164614465
 20
8091.850533456175
 30
0.0
 10
869.5876173824929
 20
8091.989888323881
 30
0.0
 10
868.3050455673986
 20
8091.999470194436
 30
0.0
  0
LINE
  5
101
330
1F
100
AcDbEntity
  8
99-model
100
AcDbLine
 10
821.945060366442
 20
8031.999999999999
 30
0.0
 11
821.9450603664297
 21
8092.0
 31
0.0
  0
SPLINE
  5
102
330
1F
100
AcDbEntity
  8
99-model
100
AcDbSpline
210
0.0
220
0.0
230
1.0
 70
     8
 71
     3
 72
    21
 73
    17
 74
     0
 42
0.000000001
 43
0.0000000001
 40
0.0
 40
0.0
 40
0.0
 40
0.0
 40
4.420151095957478
 40
8.789109185509952
 40
17.1830636666543
 40
21.22002088887449
 40
25.03207203263675
 40
28.59563948871633
 40
32.20624583208568
 40
32.20624583208568
 40
32.20624583208568
 40
45.33054932512251
 40
45.33054932512251
 40
51.88817769061789
 40
51.88817769061789
 40
58.44560663932568
 40
58.44560663932568
 40
58.44560663932568
 40
58.44560663932568
 10
15.5233405973147
 20
7404.999999999866
 30
0.0
 10
15.52345196063402
 20
7403.526649319662
 30
0.0
 10
15.56850313434302
 20
7400.596842593536
 30
0.0
 10
15.83642300331189
 20
7394.874892705039
 30
0.0
 10
16.35956323460437
 20
7389.296311578994
 30
0.0
 10
17.15111097389422
 20
7383.939103960381
 30
0.0
 10
17.85159607114724
 20
7380.199245911054
 30
0.0
 10
18.67490172076282
 20
7376.629988864111
 30
0.0
 10
19.32538705373668
 20
7374.32788931131
 30
0.0
 10
19.68785575415836
 20
7373.180194846472
 30
0.0
 10
20.59733833883524
 20
7370.301790704581
 30
0.0
 10
21.6109893860455
 20
7367.874493044184
 30
0.0
 10
23.23136917543411
 20
7364.946222973355
 30
0.0
 10
23.78749888795551
 20
7364.089807714995
 30
0.0
 10
24.92377494640891
 20
7362.617804282956
 30
0.0
 10
25.50372001990831
 20
7362.002459187034
 30
0.0
 10
26.0915040205216
 20
7361.508302890995
 30
0.0
  0
LINE
  5
103
330
1F
100
AcDbEntity
  8
99-model
100
AcDbLine
 10
15.52334059730924
 20
8047.000000000134
 30
0.0
 11
15.5233405973147
 21
7404.999999999866
 31
0.0
  0
SPLINE
  5
104
330
1F
100
AcDbEntity
  8
99-model
100
AcDbSpline
210
0.0
220
0.0
230
1.0
 70
     8
 71
     3
 72
    21
 73
    17
 74
     0
 42
0.000000001
 43
0.0000000001
 40
0.0
 40
0.0
 40
0.0
 40
0.0
 40
4.420151095957948
 40
8.789109185509037
 40
17.18306366665445
 40
21.22002088887433
 40
25.03207203263767
 40
28.59563948871769
 40
32.20624583208705
 40
32.20624583208705
 40
32.20624583208705
 40
45.33054932512388
 40
45.33054932512388
 40
51.88817769061927
 40
51.88817769061927
 40
58.44560663932705
 40
58.44560663932705
 40
58.44560663932705
 40
58.44560663932705
 10
15.52334059730924
 20
8047.000000000134
 30
0.0
 10
15.52345196062993
 20
8048.473350680333
 30
0.0
 10
15.5685031343412
 20
8051.40315740645
 30
0.0
 10
15.83642300330735
 20
8057.125107294957
 30
0.0
 10
16.35956323460027
 20
8062.703688421001
 30
0.0
 10
17.15111097389195
 20
8068.060896039614
 30
0.0
 10
17.8515960711477
 20
8071.800754088942
 30
0.0
 10
18.67490172076191
 20
8075.370011135892
 30
0.0
 10
19.32538705373349
 20
8077.672110688691
 30
0.0
 10
19.68785575415654
 20
8078.819805153528
 30
0.0
 10
20.59733833883433
 20
8081.698209295418
 30
0.0
 10
21.61098938604459
 20
8084.125506955816
 30
0.0
 10
23.23136917543411
 20
8087.053777026645
 30
0.0
 10
23.78749888795551
 20
8087.910192285005
 30
0.0
 10
24.92377494641073
 20
8089.382195717044
 30
0.0
 10
25.50372001990831
 20
8089.997540812965
 30
0.0
 10
26.09150402052251
 20
8090.491697109005
 30
0.0
  0
SPLINE
  5
105
330
1F
100
AcDbEntity
  8
99-model
100
AcDbSpline
210
0.0
220
0.0
230
1.0
 70
     8
 71
     3
 72
    21
 73
    17
 74
     0
 42
0.000000001
 43
0.0000000001
 40
0.0
 40
0.0
 40
0.0
 40
0.0
 40
6.557428948705361
 40
6.557428948705361
 40
13.11505731422018
 40
13.11505731422018
 40
26.23936080734062
 40
26.23936080734062
 40
26.23936080734062
 40
31.12662826554966
 40
35.58830338360443
 40
44.59193379820967
 40
49.15738469835755
 40
53.49365183077357
 40
57.76991292387982
 40
62.23379733761113
 40
62.23379733761113
 40
62.23379733761113
 40
62.23379733761113
 10
60.74163058558293
 20
7361.508302890958
 30
0.0
 10
58.69860060081805
 20
7362.002459186996
 30
0.0
 10
56.68281729701971
 20
7362.617804282917
 30
0.0
 10
52.73332895440831
 20
7364.089807714957
 30
0.0
 10
50.80032350187753
 20
7364.946222973314
 30
0.0
 10
45.16817888243963
 20
7367.874493044163
 30
0.0
 10
41.64491271432212
 20
7370.301790704548
 30
0.0
 10
38.48371712344465
 20
7373.180194846469
 30
0.0
 10
37.2790489605934
 20
7374.276776685569
 30
0.0
 10
35.08313574235967
 20
7376.494274958436
 30
0.0
 10
31.2344528463816
 20
7381.25836471268
 30
0.0
 10
28.18364732954865
 20
7386.473728400982
 30
0.0
 10
26.01810824683548
 20
7392.045245740581
 30
0.0
 10
24.8666672080783
 20
7396.29025277305
 30
0.0
 10
24.16759948132062
 20
7400.598732772165
 30
0.0
 10
24.00857294350249
 20
7403.51200833034
 30
0.0
 10
24.00862197159472
 20
7404.999999999866
 30
0.0
  0
SPLINE
  5
106
330
1F
100
AcDbEntity
  8
99-model
100
AcDbSpline
210
0.0
220
0.0
230
1.0
 70
     8
 71
     3
 72
    21
 73
    17
 74
     0
 42
0.000000001
 43
0.0000000001
 40
0.0
 40
0.0
 40
0.0
 40
0.0
 40
6.557428948705361
 40
6.557428948705361
 40
13.11505731422018
 40
13.11505731422018
 40
26.23936080734062
 40
26.23936080734062
 40
26.23936080734062
 40
31.12662826555069
 40
35.58830338360464
 40
44.59193379820995
 40
49.15738469835813
 40
53.49365183077352
 40
57.76991292388007
 40
62.23379733761236
 40
62.23379733761236
 40
62.23379733761236
 40
62.23379733761236
 10
60.74163058558383
 20
8090.491697109041
 30
0.0
 10
58.69860060081987
 20
8089.997540813004
 30
0.0
 10
56.68281729701971
 20
8089.382195717083
 30
0.0
 10
52.73332895440831
 20
8087.910192285043
 30
0.0
 10
50.80032350187844
 20
8087.053777026686
 30
0.0
 10
45.16817888244054
 20
8084.125506955837
 30
0.0
 10
41.64491271432212
 20
8081.698209295452
 30
0.0
 10
38.48371712344556
 20
8078.81980515353
 30
0.0
 10
37.27904896059886
 20
8077.72322331443
 30
0.0
 10
35.08313574235558
 20
8075.505725041555
 30
0.0
 10
31.23445284638433
 20
8070.741635287321
 30
0.0
 10
28.18364732955001
 20
8065.526271599017
 30
0.0
 10
26.01810824683275
 20
8059.954754259429
 30
0.0
 10
24.86666720807511
 20
8055.709747226953
 30
0.0
 10
24.16759948132062
 20
8051.401267227836
 30
0.0
 10
24.00857294349885
 20
8048.487991669658
 30
0.0
 10
24.00862197159472
 20
8047.000000000133
 30
0.0
  0
LINE
  5
107
330
1F
100
AcDbEntity
  8
99-model
100
AcDbLine
 10
24.00862197159472
 20
8047.000000000133
 30
0.0
 11
24.00862197159472
 21
7404.999999999867
 31
0.0
  0
ARC
  5
108
330
1F
100
AcDbEntity
  8
99-model
100
AcDbCircle
 10
72.61178270915218
 20
8045.23142241153
 30
0.0
 40
46.79094973529379
100
AcDbArc
 50
91.79976802993245
 51
104.6956665862502
  0
SPLINE
  5
109
330
1F
100
AcDbEntity
  8
99-model
100
AcDbSpline
210
0.0
220
0.0
230
1.0
 70
     8
 71
     3
 72
    10
 73
     6
 74
     0
 42
0.000000001
 43
0.0000000001
 40
0.0
 40
0.0
 40
0.0
 40
0.0
 40
6.144667443985142
 40
6.144667443985142
 40
12.07811824883808
 40
12.07811824883808
 40
12.07811824883808
 40
12.07811824883808
 10
26.09150402052251
 20
8090.491697109005
 30
0.0
 10
26.64270207400546
 20
8090.955095085214
 30
0.0
 10
27.40137496151942
 20
8091.335457604923
 30
0.0
 10
29.29918283857273
 20
8091.850533266195
 30
0.0
 10
30.41238094592222
 20
8091.989888114625
 30
0.0
 10
31.69495154372521
 20
8091.999470172854
 30
0.0
  0
ARC
  5
10A
330
1F
100
AcDbEntity
  8
99-model
100
AcDbCircle
 10
72.481347411723
 20
7406.005345417234
 30
0.0
 40
46.01964520444634
100
AcDbArc
 50
255.2203536686766
 51
268.5716256882846
  0
LINE
  5
10B
330
1F
100
AcDbEntity
  8
99-model
100
AcDbLine
 10
78.05493963355934
 20
8031.999999999999
 30
0.0
 11
78.05493963357162
 21
8092.0
 31
0.0
  0
ARC
  5
10C
330
1F
100
AcDbEntity
  8
99-model
100
AcDbCircle
 10
872.0000000008898
 20
8119.999999999113
 30
0.0
 40
27.99999999911324
100
AcDbArc
 50
270.0000000001235
 51
0.0000000018145519
  0
ARC
  5
10D
330
1F
100
AcDbEntity
  8
99-model
100
AcDbCircle
 10
27.99999999920722
 20
8119.999999999207
 30
0.0
 40
27.99999999920692
100
AcDbArc
 50
179.9999999983771
 51
269.9999999997235
  0
LINE
  5
10E
330
1F
100
AcDbEntity
  8
99-model
100
AcDbLine
 10
818.9999999999884
 20
7359.999999999999
 30
0.0
 11
818.9999999999884
 21
8032.0
 31
0.0
  0
LINE
  5
10F
330
1F
100
AcDbEntity
  8
99-model
100
AcDbLine
 10
81.00000000001342
 20
8031.999999999999
 30
0.0
 11
81.00000000001342
 21
7359.999999999999
 31
0.0
  0
LINE
  5
110
330
1F
100
AcDbEntity
  8
99-model
100
AcDbLine
 10
837.0000000000007
 20
4560.0
 30
0.0
 11
63.00000000000068
 21
4560.0
 31
0.0
  0
ARC
  5
111
330
1F
100
AcDbEntity
  8
99-model
100
AcDbCircle
 10
837.000000000002
 20
4622.999999999998
 30
0.0
 40
62.99999999999864
100
AcDbArc
 50
269.9999999999987
 51
0.0000000000016543
  0
ARC
  5
112
330
1F
100
AcDbEntity
  8
99-model
100
AcDbCircle
 10
63.00000000000072
 20
4623.0
 30
0.0
 40
63.0
100
AcDbArc
 50
180.0
 51
269.9999999999999
  0
LINE
  5
113
330
1F
100
AcDbEntity
  8
99-model
100
AcDbLine
 10
3087.953318805372
 20
2300.0
 30
0.0
 11
3137.11595002459
 21
2300.0
 31
0.0
  0
SPLINE
  5
114
330
1F
100
AcDbEntity
  8
99-model
100
AcDbSpline
210
0.0
220
0.0
230
1.0
 70
     8
 71
     3
 72
    10
 73
     6
 74
     0
 42
0.000000001
 43
0.0000000001
 40
0.0
 40
0.0
 40
0.0
 40
0.0
 40
6.144667443985142
 40
6.144667443985142
 40
12.29667374199338
 40
12.29667374199338
 40
12.29667374199338
 40
12.29667374199338
 10
3142.861814784862
 20
2301.508302890995
 30
0.0
 10
3142.310616731379
 20
2301.044904914786
 30
0.0
 10
3141.551943843866
 20
2300.664542395077
 30
0.0
 10
3139.619794827907
 20
2300.140146356836
 30
0.0
 10
3138.45868431826
 20
2299.999999999998
 30
0.0
 10
3137.115950024589
 20
2300.000000000001
 30
0.0
  0
SPLINE
  5
115
330
1F
100
AcDbEntity
  8
99-model
100
AcDbSpline
210
0.0
220
0.0
230
1.0
 70
     8
 71
     3
 72
    21
 73
    17
 74
     0
 42
0.000000001
 43
0.0000000001
 40
0.0
 40
0.0
 40
0.0
 40
0.0
 40
4.420151095957478
 40
8.789109185509952
 40
17.1830636666543
 40
21.22002088887449
 40
25.03207203263675
 40
28.59563948871633
 40
32.20624583208568
 40
32.20624583208568
 40
32.20624583208568
 40
45.33054932512251
 40
45.33054932512251
 40
51.88817769061789
 40
51.88817769061789
 40
58.44560663932568
 40
58.44560663932568
 40
58.44560663932568
 40
58.44560663932568
 10
3153.42997820807
 20
2344.999999999866
 30
0.0
 10
3153.42986684475
 20
2343.526649319662
 30
0.0
 10
3153.384815671041
 20
2340.596842593536
 30
0.0
 10
3153.116895802073
 20
2334.874892705039
 30
0.0
 10
3152.59375557078
 20
2329.296311578994
 30
0.0
 10
3151.80220783149
 20
2323.939103960381
 30
0.0
 10
3151.101722734238
 20
2320.199245911054
 30
0.0
 10
3150.278417084622
 20
2316.629988864111
 30
0.0
 10
3149.627931751648
 20
2314.32788931131
 30
0.0
 10
3149.265463051226
 20
2313.180194846472
 30
0.0
 10
3148.355980466549
 20
2310.301790704581
 30
0.0
 10
3147.342329419339
 20
2307.874493044184
 30
0.0
 10
3145.721949629951
 20
2304.946222973355
 30
0.0
 10
3145.165819917429
 20
2304.089807714995
 30
0.0
 10
3144.029543858976
 20
2302.617804282956
 30
0.0
 10
3143.449598785477
 20
2302.002459187034
 30
0.0
 10
3142.861814784862
 20
2301.508302890995
 30
0.0
  0
SPLINE
  5
116
330
1F
100
AcDbEntity
  8
99-model
100
AcDbSpline
210
0.0
220
0.0
230
1.0
 70
     8
 71
     3
 72
    21
 73
    17
 74
     0
 42
0.000000001
 43
0.0000000001
 40
0.0
 40
0.0
 40
0.0
 40
0.0
 40
6.557428948705361
 40
6.557428948705361
 40
13.11505731422018
 40
13.11505731422018
 40
26.23936080734062
 40
26.23936080734062
 40
26.23936080734062
 40
31.12662826554966
 40
35.58830338360443
 40
44.59193379820967
 40
49.15738469835755
 40
53.49365183077357
 40
57.76991292387982
 40
62.23379733761113
 40
62.23379733761113
 40
62.23379733761113
 40
62.23379733761113
 10
3108.211688219802
 20
2301.508302890958
 30
0.0
 10
3110.254718204567
 20
2302.002459186996
 30
0.0
 10
3112.270501508364
 20
2302.617804282917
 30
0.0
 10
3116.219989850977
 20
2304.089807714957
 30
0.0
 10
3118.152995303507
 20
2304.946222973314
 30
0.0
 10
3123.785139922945
 20
2307.874493044163
 30
0.0
 10
3127.308406091062
 20
2310.301790704548
 30
0.0
 10
3130.469601681939
 20
2313.180194846469
 30
0.0
 10
3131.674269844791
 20
2314.276776685569
 30
0.0
 10
3133.870183063025
 20
2316.494274958436
 30
0.0
 10
3137.718865959002
 20
2321.25836471268
 30
0.0
 10
3140.769671475836
 20
2326.473728400982
 30
0.0
 10
3142.935210558549
 20
2332.045245740581
 30
0.0
 10
3144.086651597306
 20
2336.29025277305
 30
0.0
 10
3144.785719324064
 20
2340.598732772165
 30
0.0
 10
3144.944745861882
 20
2343.51200833034
 30
0.0
 10
3144.94469683379
 20
2344.999999999866
 30
0.0
  0
ARC
  5
117
330
1F
100
AcDbEntity
  8
99-model
100
AcDbCircle
 10
3096.471971393644
 20
2346.005345417361
 30
0.0
 40
46.01964520457408
100
AcDbArc
 50
271.4283743117339
 51
284.7796463313048
  0
LINE
  5
118
330
1F
100
AcDbEntity
  8
99-model
100
AcDbLine
 10
1449.953318805396
 20
2300.000000000001
 30
0.0
 11
1400.790687586178
 21
2300.000000000001
 31
0.0
  0
SPLINE
  5
119
330
1F
100
AcDbEntity
  8
99-model
100
AcDbSpline
210
0.0
220
0.0
230
1.0
 70
     8
 71
     3
 72
    10
 73
     6
 74
     0
 42
0.000000001
 43
0.0000000001
 40
0.0
 40
0.0
 40
0.0
 40
0.0
 40
6.144667443985142
 40
6.144667443985142
 40
12.29667374199338
 40
12.29667374199338
 40
12.29667374199338
 40
12.29667374199338
 10
1395.044822825905
 20
2301.508302890996
 30
0.0
 10
1395.596020879388
 20
2301.044904914786
 30
0.0
 10
1396.354693766902
 20
2300.664542395078
 30
0.0
 10
1398.286842782859
 20
2300.140146356837
 30
0.0
 10
1399.447953292507
 20
2299.999999999999
 30
0.0
 10
1400.790687586179
 20
2300.000000000002
 30
0.0
  0
SPLINE
  5
11A
330
1F
100
AcDbEntity
  8
99-model
100
AcDbSpline
210
0.0
220
0.0
230
1.0
 70
     8
 71
     3
 72
    21
 73
    17
 74
     0
 42
0.000000001
 43
0.0000000001
 40
0.0
 40
0.0
 40
0.0
 40
0.0
 40
4.420151095957478
 40
8.789109185509952
 40
17.1830636666543
 40
21.22002088887449
 40
25.03207203263675
 40
28.59563948871633
 40
32.20624583208568
 40
32.20624583208568
 40
32.20624583208568
 40
45.33054932512251
 40
45.33054932512251
 40
51.88817769061789
 40
51.88817769061789
 40
58.44560663932568
 40
58.44560663932568
 40
58.44560663932568
 40
58.44560663932568
 10
1384.476659402697
 20
2344.999999999867
 30
0.0
 10
1384.476770766017
 20
2343.526649319663
 30
0.0
 10
1384.521821939726
 20
2340.596842593537
 30
0.0
 10
1384.789741808695
 20
2334.87489270504
 30
0.0
 10
1385.312882039987
 20
2329.296311578995
 30
0.0
 10
1386.104429779277
 20
2323.939103960382
 30
0.0
 10
1386.80491487653
 20
2320.199245911055
 30
0.0
 10
1387.628220526145
 20
2316.629988864112
 30
0.0
 10
1388.27870585912
 20
2314.327889311311
 30
0.0
 10
1388.641174559541
 20
2313.180194846473
 30
0.0
 10
1389.550657144218
 20
2310.301790704582
 30
0.0
 10
1390.564308191428
 20
2307.874493044184
 30
0.0
 10
1392.184687980817
 20
2304.946222973356
 30
0.0
 10
1392.740817693338
 20
2304.089807714996
 30
0.0
 10
1393.877093751792
 20
2302.617804282957
 30
0.0
 10
1394.457038825291
 20
2302.002459187035
 30
0.0
 10
1395.044822825904
 20
2301.508302890996
 30
0.0
  0
SPLINE
  5
11B
330
1F
100
AcDbEntity
  8
99-model
100
AcDbSpline
210
0.0
220
0.0
230
1.0
 70
     8
 71
     3
 72
    21
 73
    17
 74
     0
 42
0.000000001
 43
0.0000000001
 40
0.0
 40
0.0
 40
0.0
 40
0.0
 40
6.557428948705361
 40
6.557428948705361
 40
13.11505731422018
 40
13.11505731422018
 40
26.23936080734062
 40
26.23936080734062
 40
26.23936080734062
 40
31.12662826554966
 40
35.58830338360443
 40
44.59193379820967
 40
49.15738469835755
 40
53.49365183077357
 40
57.76991292387982
 40
62.23379733761113
 40
62.23379733761113
 40
62.23379733761113
 40
62.23379733761113
 10
1429.694949390966
 20
2301.508302890959
 30
0.0
 10
1427.651919406201
 20
2302.002459186997
 30
0.0
 10
1425.636136102402
 20
2302.617804282918
 30
0.0
 10
1421.686647759791
 20
2304.089807714958
 30
0.0
 10
1419.75364230726
 20
2304.946222973314
 30
0.0
 10
1414.121497687822
 20
2307.874493044164
 30
0.0
 10
1410.598231519705
 20
2310.301790704549
 30
0.0
 10
1407.437035928827
 20
2313.18019484647
 30
0.0
 10
1406.232367765977
 20
2314.27677668557
 30
0.0
 10
1404.036454547742
 20
2316.494274958437
 30
0.0
 10
1400.187771651764
 20
2321.258364712681
 30
0.0
 10
1397.136966134931
 20
2326.473728400983
 30
0.0
 10
1394.971427052218
 20
2332.045245740582
 30
0.0
 10
1393.81998601346
 20
2336.290252773051
 30
0.0
 10
1393.120918286704
 20
2340.598732772166
 30
0.0
 10
1392.961891748886
 20
2343.512008330341
 30
0.0
 10
1392.961940776977
 20
2344.999999999867
 30
0.0
  0
ARC
  5
11C
330
1F
100
AcDbEntity
  8
99-model
100
AcDbCircle
 10
1441.434666217125
 20
2346.005345417371
 30
0.0
 40
46.01964520458274
100
AcDbArc
 50
255.2203536686965
 51
268.5716256882649
  0
LINE
  5
11D
330
1F
100
AcDbEntity
  8
99-model
100
AcDbLine
 10
1396.953318804456
 20
3032.0
 30
0.0
 11
3137.906831606886
 21
3032.0
 31
0.0
  0
LINE
  5
11E
330
1F
100
AcDbEntity
  8
99-model
100
AcDbLine
 10
3168.953318805383
 20
3060.0
 30
0.0
 11
1368.953318805383
 21
3060.0
 31
0.0
  0
LINE
  5
11F
330
1F
100
AcDbEntity
  8
99-model
100
AcDbLine
 10
818.9999999999882
 20
2300.0
 30
0.0
 11
868.1626312192066
 21
2300.0
 31
0.0
  0
SPLINE
  5
120
330
1F
100
AcDbEntity
  8
99-model
100
AcDbSpline
210
0.0
220
0.0
230
1.0
 70
     8
 71
     3
 72
    10
 73
     6
 74
     0
 42
0.000000001
 43
0.0000000001
 40
0.0
 40
0.0
 40
0.0
 40
0.0
 40
6.144667443985142
 40
6.144667443985142
 40
12.29667374199338
 40
12.29667374199338
 40
12.29667374199338
 40
12.29667374199338
 10
873.9084959794791
 20
2301.508302890995
 30
0.0
 10
873.3572979259961
 20
2301.044904914786
 30
0.0
 10
872.5986250384822
 20
2300.664542395077
 30
0.0
 10
870.6664760225249
 20
2300.140146356836
 30
0.0
 10
869.5053655128777
 20
2299.999999999998
 30
0.0
 10
868.1626312192061
 20
2300.000000000001
 30
0.0
  0
SPLINE
  5
121
330
1F
100
AcDbEntity
  8
99-model
100
AcDbSpline
210
0.0
220
0.0
230
1.0
 70
     8
 71
     3
 72
    21
 73
    17
 74
     0
 42
0.000000001
 43
0.0000000001
 40
0.0
 40
0.0
 40
0.0
 40
0.0
 40
4.420151095957478
 40
8.789109185509952
 40
17.1830636666543
 40
21.22002088887449
 40
25.03207203263675
 40
28.59563948871633
 40
32.20624583208568
 40
32.20624583208568
 40
32.20624583208568
 40
45.33054932512251
 40
45.33054932512251
 40
51.88817769061789
 40
51.88817769061789
 40
58.44560663932568
 40
58.44560663932568
 40
58.44560663932568
 40
58.44560663932568
 10
884.4766594026869
 20
2344.999999999866
 30
0.0
 10
884.4765480393676
 20
2343.526649319662
 30
0.0
 10
884.4314968656586
 20
2340.596842593536
 30
0.0
 10
884.1635769966897
 20
2334.874892705039
 30
0.0
 10
883.6404367653972
 20
2329.296311578994
 30
0.0
 10
882.8488890261074
 20
2323.939103960381
 30
0.0
 10
882.1484039288543
 20
2320.199245911054
 30
0.0
 10
881.3250982792388
 20
2316.629988864111
 30
0.0
 10
880.6746129462649
 20
2314.32788931131
 30
0.0
 10
880.3121442458432
 20
2313.180194846472
 30
0.0
 10
879.4026616611663
 20
2310.301790704581
 30
0.0
 10
878.3890106139561
 20
2307.874493044184
 30
0.0
 10
876.7686308245675
 20
2304.946222973355
 30
0.0
 10
876.2125011120461
 20
2304.089807714995
 30
0.0
 10
875.0762250535927
 20
2302.617804282956
 30
0.0
 10
874.4962799800933
 20
2302.002459187034
 30
0.0
 10
873.90849597948
 20
2301.508302890995
 30
0.0
  0
SPLINE
  5
122
330
1F
100
AcDbEntity
  8
99-model
100
AcDbSpline
210
0.0
220
0.0
230
1.0
 70
     8
 71
     3
 72
    21
 73
    17
 74
     0
 42
0.000000001
 43
0.0000000001
 40
0.0
 40
0.0
 40
0.0
 40
0.0
 40
6.557428948705361
 40
6.557428948705361
 40
13.11505731422018
 40
13.11505731422018
 40
26.23936080734062
 40
26.23936080734062
 40
26.23936080734062
 40
31.12662826554966
 40
35.58830338360443
 40
44.59193379820967
 40
49.15738469835755
 40
53.49365183077357
 40
57.76991292387982
 40
62.23379733761113
 40
62.23379733761113
 40
62.23379733761113
 40
62.23379733761113
 10
839.2583694144187
 20
2301.508302890958
 30
0.0
 10
841.3013993991835
 20
2302.002459186996
 30
0.0
 10
843.3171827029819
 20
2302.617804282917
 30
0.0
 10
847.2666710455933
 20
2304.089807714957
 30
0.0
 10
849.1996764981241
 20
2304.946222973314
 30
0.0
 10
854.831821117562
 20
2307.874493044163
 30
0.0
 10
858.3550872856795
 20
2310.301790704548
 30
0.0
 10
861.5162828765569
 20
2313.180194846469
 30
0.0
 10
862.7209510394082
 20
2314.276776685569
 30
0.0
 10
864.9168642576419
 20
2316.494274958436
 30
0.0
 10
868.76554715362
 20
2321.25836471268
 30
0.0
 10
871.8163526704529
 20
2326.473728400982
 30
0.0
 10
873.9818917531661
 20
2332.045245740581
 30
0.0
 10
875.1333327919233
 20
2336.29025277305
 30
0.0
 10
875.832400518681
 20
2340.598732772165
 30
0.0
 10
875.9914270564991
 20
2343.51200833034
 30
0.0
 10
875.9913780284069
 20
2344.999999999866
 30
0.0
  0
ARC
  5
123
330
1F
100
AcDbEntity
  8
99-model
100
AcDbCircle
 10
827.51865258826
 20
2346.005345417365
 30
0.0
 40
46.01964520457772
100
AcDbArc
 50
271.4283743117344
 51
284.7796463313043
  0
LINE
  5
124
330
1F
100
AcDbEntity
  8
99-model
100
AcDbLine
 10
900.0000000000009
 20
3060.0
 30
0.0
 11
0.0000000000004547
 21
3060.0
 31
0.0
  0
LINE
  5
125
330
1F
100
AcDbEntity
  8
99-model
100
AcDbLine
 10
872.0000000009491
 20
3032.0
 30
0.0
 11
28.00063513487385
 21
3032.0
 31
0.0
  0
LINE
  5
126
330
1F
100
AcDbEntity
  8
99-model
100
AcDbLine
 10
81.00000000001273
 20
2300.0
 30
0.0
 11
31.83736878079435
 21
2300.0
 31
0.0
  0
SPLINE
  5
127
330
1F
100
AcDbEntity
  8
99-model
100
AcDbSpline
210
0.0
220
0.0
230
1.0
 70
     8
 71
     3
 72
    10
 73
     6
 74
     0
 42
0.000000001
 43
0.0000000001
 40
0.0
 40
0.0
 40
0.0
 40
0.0
 40
6.144667443985142
 40
6.144667443985142
 40
12.29667374199338
 40
12.29667374199338
 40
12.29667374199338
 40
12.29667374199338
 10
26.09150402052182
 20
2301.508302890995
 30
0.0
 10
26.64270207400477
 20
2301.044904914786
 30
0.0
 10
27.40137496151874
 20
2300.664542395077
 30
0.0
 10
29.33352397747603
 20
2300.140146356836
 30
0.0
 10
30.49463448712322
 20
2299.999999999998
 30
0.0
 10
31.8373687807948
 20
2300.000000000001
 30
0.0
  0
LINE
  5
128
330
1F
100
AcDbEntity
  8
99-model
100
AcDbLine
 10
1447.008258439012
 20
2972.0
 30
0.0
 11
3090.898379171756
 21
2972.0
 31
0.0
  0
LINE
  5
129
330
1F
100
AcDbEntity
  8
99-model
100
AcDbLine
 10
3144.944696833783
 20
2987.000000000134
 30
0.0
 11
3144.944696833785
 21
2344.999999999866
 31
0.0
  0
SPLINE
  5
12A
330
1F
100
AcDbEntity
  8
99-model
100
AcDbSpline
210
0.0
220
0.0
230
1.0
 70
     8
 71
     3
 72
    19
 73
    15
 74
     0
 42
0.000000001
 43
0.0000000001
 40
0.0
 40
0.0
 40
0.0
 40
0.0
 40
4.42804021744519
 40
8.851774976039685
 40
17.67072116941104
 40
26.64549492702106
 40
35.99443750328912
 40
35.99443750328912
 40
35.99443750328912
 40
49.11874099632595
 40
49.11874099632595
 40
55.67636936182134
 40
55.67636936182134
 40
62.23379831052912
 40
62.23379831052912
 40
62.23379831052912
 40
62.23379831052912
 10
3144.944696833783
 20
2987.000000000134
 30
0.0
 10
3144.944869514853
 20
2988.476087389728
 30
0.0
 10
3144.784734101738
 20
2991.426441450157
 30
0.0
 10
3143.835348633343
 20
2997.248619222549
 30
0.0
 10
3141.480891702622
 20
3004.313419075628
 30
0.0
 10
3136.885009351073
 20
3012.162252282143
 30
0.0
 10
3132.773839231145
 20
3016.721987892595
 30
0.0
 10
3130.469601681859
 20
3018.819805153529
 30
0.0
 10
3127.308406091008
 20
3021.698209295419
 30
0.0
 10
3123.78513992286
 20
3024.125506955816
 30
0.0
 10
3118.15299530347
 20
3027.053777026646
 30
0.0
 10
3116.219989850939
 20
3027.910192285004
 30
0.0
 10
3112.270501508348
 20
3029.382195717044
 30
0.0
 10
3110.254718204561
 20
3029.997540812965
 30
0.0
 10
3108.211688219803
 20
3030.491697109006
 30
0.0
  0
SPLINE
  5
12B
330
1F
100
AcDbEntity
  8
99-model
100
AcDbSpline
210
0.0
220
0.0
230
1.0
 70
     8
 71
     3
 72
    20
 73
    16
 74
     0
 42
0.000000001
 43
0.0000000001
 40
0.0
 40
0.0
 40
0.0
 40
0.0
 40
6.557428948705361
 40
6.557428948705361
 40
13.11505731422018
 40
13.11505731422018
 40
26.23936080734062
 40
26.23936080734062
 40
26.23936080734062
 40
29.84996715070789
 40
33.41353460678939
 40
37.22558575055261
 40
41.28906030959548
 40
49.76579758255271
 40
58.44560653988774
 40
58.44560653988774
 40
58.44560653988774
 40
58.44560653988774
 10
3142.861814784863
 20
3030.491697109041
 30
0.0
 10
3143.449598785478
 20
3029.997540813004
 30
0.0
 10
3144.029543858981
 20
3029.382195717083
 30
0.0
 10
3145.165819917439
 20
3027.910192285043
 30
0.0
 10
3145.721949629961
 20
3027.053777026686
 30
0.0
 10
3147.342329419364
 20
3024.125506955837
 30
0.0
 10
3148.355980466572
 20
3021.698209295452
 30
0.0
 10
3149.265463051256
 20
3018.819805153531
 30
0.0
 10
3149.627926502122
 20
3017.672106721795
 30
0.0
 10
3150.278427595359
 20
3015.370019082531
 30
0.0
 10
3151.101708608948
 20
3011.80074339463
 30
0.0
 10
3151.803857285862
 20
3008.05222307386
 30
0.0
 10
3152.599972736155
 20
3002.658803498165
 30
0.0
 10
3153.256980264835
 20
2995.612121221797
 30
0.0
 10
3153.429865256019
 20
2989.893295413382
 30
0.0
 10
3153.429978208078
 20
2987.000000000133
 30
0.0
  0
LINE
  5
12C
330
1F
100
AcDbEntity
  8
99-model
100
AcDbLine
 10
3153.429978208078
 20
2987.000000000133
 30
0.0
 11
3153.429978208077
 21
2344.999999999867
 31
0.0
  0
SPLINE
  5
12D
330
1F
100
AcDbEntity
  8
99-model
100
AcDbSpline
210
0.0
220
0.0
230
1.0
 70
     8
 71
     3
 72
    10
 73
     6
 74
     0
 42
0.000000001
 43
0.0000000001
 40
-12.07811836103281
 40
-12.07811836103281
 40
-12.07811836103281
 40
-12.07811836103281
 40
-6.144668176903346
 40
-6.144668176903346
 40
0.0
 40
0.0
 40
0.0
 40
0.0
 10
3137.258367261582
 20
3031.999470166418
 30
0.0
 10
3138.540938358022
 20
3031.989888052224
 30
0.0
 10
3139.654136175626
 20
3031.850533209545
 30
0.0
 10
3141.551943843918
 20
3031.335457604929
 30
0.0
 10
3142.31061673142
 20
3030.955095085224
 30
0.0
 10
3142.861814784863
 20
3030.491697109041
 30
0.0
  0
ARC
  5
12E
330
1F
100
AcDbEntity
  8
99-model
100
AcDbCircle
 10
3096.366280310925
 20
2985.367776705768
 30
0.0
 40
46.65277999310903
100
AcDbArc
 50
75.29124612495211
 51
88.28216880947024
  0
LINE
  5
12F
330
1F
100
AcDbEntity
  8
99-model
100
AcDbLine
 10
3090.898379171754
 20
3032.0
 30
0.0
 11
3090.898379171756
 21
2972.0
 31
0.0
  0
LINE
  5
130
330
1F
100
AcDbEntity
  8
99-model
100
AcDbLine
 10
1392.961940776985
 20
2987.000000000134
 30
0.0
 11
1392.961940776982
 21
2344.999999999866
 31
0.0
  0
SPLINE
  5
131
330
1F
100
AcDbEntity
  8
99-model
100
AcDbSpline
210
0.0
220
0.0
230
1.0
 70
     8
 71
     3
 72
    19
 73
    15
 74
     0
 42
0.000000001
 43
0.0000000001
 40
0.0
 40
0.0
 40
0.0
 40
0.0
 40
4.428040217445176
 40
8.851774976039625
 40
17.67072116941093
 40
26.64549492702112
 40
35.99443750328926
 40
35.99443750328926
 40
35.99443750328926
 40
49.1187409963261
 40
49.1187409963261
 40
55.67636936182148
 40
55.67636936182148
 40
62.23379831052927
 40
62.23379831052927
 40
62.23379831052927
 40
62.23379831052927
 10
1392.961940776985
 20
2987.000000000134
 30
0.0
 10
1392.961768095918
 20
2988.476087389728
 30
0.0
 10
1393.121903509033
 20
2991.426441450159
 30
0.0
 10
1394.071288977425
 20
2997.248619222551
 30
0.0
 10
1396.425745908142
 20
3004.313419075636
 30
0.0
 10
1401.021628259695
 20
3012.162252282139
 30
0.0
 10
1405.132798379623
 20
3016.721987892597
 30
0.0
 10
1407.437035928908
 20
3018.819805153529
 30
0.0
 10
1410.598231519758
 20
3021.698209295419
 30
0.0
 10
1414.121497687907
 20
3024.125506955816
 30
0.0
 10
1419.753642307297
 20
3027.053777026646
 30
0.0
 10
1421.686647759828
 20
3027.910192285004
 30
0.0
 10
1425.636136102419
 20
3029.382195717044
 30
0.0
 10
1427.651919406206
 20
3029.997540812965
 30
0.0
 10
1429.694949390964
 20
3030.491697109006
 30
0.0
  0
SPLINE
  5
132
330
1F
100
AcDbEntity
  8
99-model
100
AcDbSpline
210
0.0
220
0.0
230
1.0
 70
     8
 71
     3
 72
    20
 73
    16
 74
     0
 42
0.000000001
 43
0.0000000001
 40
0.0
 40
0.0
 40
0.0
 40
0.0
 40
6.557428948705361
 40
6.557428948705361
 40
13.11505731422018
 40
13.11505731422018
 40
26.23936080734062
 40
26.23936080734062
 40
26.23936080734062
 40
29.84996715070794
 40
33.41353460678928
 40
37.22558575055264
 40
41.28906030959549
 40
49.76579758255271
 40
58.44560653988773
 40
58.44560653988773
 40
58.44560653988773
 40
58.44560653988773
 10
1395.044822825903
 20
3030.491697109041
 30
0.0
 10
1394.457038825288
 20
3029.997540813004
 30
0.0
 10
1393.877093751787
 20
3029.382195717083
 30
0.0
 10
1392.740817693327
 20
3027.910192285043
 30
0.0
 10
1392.184687980806
 20
3027.053777026686
 30
0.0
 10
1390.564308191404
 20
3024.125506955837
 30
0.0
 10
1389.550657144195
 20
3021.698209295452
 30
0.0
 10
1388.641174559512
 20
3018.819805153531
 30
0.0
 10
1388.278711108646
 20
3017.672106721787
 30
0.0
 10
1387.628210015409
 20
3015.370019082539
 30
0.0
 10
1386.804929001819
 20
3011.80074339462
 30
0.0
 10
1386.102780324905
 20
3008.05222307387
 30
0.0
 10
1385.30666487461
 20
3002.658803498167
 30
0.0
 10
1384.649657345933
 20
2995.612121221795
 30
0.0
 10
1384.476772354749
 20
2989.893295413373
 30
0.0
 10
1384.476659402688
 20
2987.000000000133
 30
0.0
  0
LINE
  5
133
330
1F
100
AcDbEntity
  8
99-model
100
AcDbLine
 10
1384.476659402688
 20
2987.000000000133
 30
0.0
 11
1384.47665940269
 21
2344.999999999867
 31
0.0
  0
SPLINE
  5
134
330
1F
100
AcDbEntity
  8
99-model
100
AcDbSpline
210
0.0
220
0.0
230
1.0
 70
     8
 71
     3
 72
    10
 73
     6
 74
     0
 42
0.000000001
 43
0.0000000001
 40
-12.07811836103351
 40
-12.07811836103351
 40
-12.07811836103351
 40
-12.07811836103351
 40
-6.144668176903346
 40
-6.144668176903346
 40
0.0
 40
0.0
 40
0.0
 40
0.0
 10
1400.648270349185
 20
3031.999470166418
 30
0.0
 10
1399.365699252744
 20
3031.989888052224
 30
0.0
 10
1398.252501435142
 20
3031.850533209545
 30
0.0
 10
1396.354693766848
 20
3031.335457604929
 30
0.0
 10
1395.596020879347
 20
3030.955095085224
 30
0.0
 10
1395.044822825903
 20
3030.491697109041
 30
0.0
  0
ARC
  5
135
330
1F
100
AcDbEntity
  8
99-model
100
AcDbCircle
 10
1441.540357299873
 20
2985.367776705608
 30
0.0
 40
46.65277999327177
100
AcDbArc
 50
91.71783119056094
 51
104.708753875035
  0
LINE
  5
136
330
1F
100
AcDbEntity
  8
99-model
100
AcDbLine
 10
1447.008258439013
 20
3032.0
 30
0.0
 11
1447.008258439012
 21
2972.0
 31
0.0
  0
LINE
  5
137
330
1F
100
AcDbEntity
  8
99-model
100
AcDbLine
 10
3140.952683670511
 20
3032.0
 30
0.0
 11
3137.906831606886
 21
3032.0
 31
0.0
  0
ARC
  5
138
330
1F
100
AcDbEntity
  8
99-model
100
AcDbCircle
 10
1396.953318804512
 20
3059.999999999129
 30
0.0
 40
27.9999999991287
100
AcDbArc
 50
179.9999999982171
 51
269.9999999998846
  0
ARC
  5
139
330
1F
100
AcDbEntity
  8
99-model
100
AcDbCircle
 10
3140.953318806194
 20
3059.99999999919
 30
0.0
 40
27.99999999918964
100
AcDbArc
 50
270.0000000002847
 51
0.0000000016582213
  0
LINE
  5
13A
330
1F
100
AcDbEntity
  8
99-model
100
AcDbLine
 10
3087.953318805371
 20
2300.0
 30
0.0
 11
3087.953318805371
 21
2972.0
 31
0.0
  0
LINE
  5
13B
330
1F
100
AcDbEntity
  8
99-model
100
AcDbLine
 10
1449.953318805396
 20
2972.0
 30
0.0
 11
1449.953318805396
 21
2300.0
 31
0.0
  0
LINE
  5
13C
330
1F
100
AcDbEntity
  8
99-model
100
AcDbLine
 10
78.05493963194567
 20
2972.0
 30
0.0
 11
821.9450603680557
 21
2972.0
 31
0.0
  0
LINE
  5
13D
330
1F
100
AcDbEntity
  8
99-model
100
AcDbLine
 10
884.4766594026914
 20
2987.000000000134
 30
0.0
 11
884.476659402686
 21
2344.999999999866
 31
0.0
  0
SPLINE
  5
13E
330
1F
100
AcDbEntity
  8
99-model
100
AcDbSpline
210
0.0
220
0.0
230
1.0
 70
     8
 71
     3
 72
    21
 73
    17
 74
     0
 42
0.000000001
 43
0.0000000001
 40
0.0
 40
0.0
 40
0.0
 40
0.0
 40
4.420151095957939
 40
8.78910918550911
 40
17.18306366665449
 40
21.22002088887438
 40
25.03207203263755
 40
28.59563948871766
 40
32.20624583208686
 40
32.20624583208686
 40
32.20624583208686
 40
45.33054932512369
 40
45.33054932512369
 40
51.88817769061907
 40
51.88817769061907
 40
58.44560663932686
 40
58.44560663932686
 40
58.44560663932686
 40
58.44560663932686
 10
884.4766594026914
 20
2987.000000000134
 30
0.0
 10
884.4765480393653
 20
2988.473350680334
 30
0.0
 10
884.4314968656595
 20
2991.40315740646
 30
0.0
 10
884.1635769966847
 20
2997.125107294952
 30
0.0
 10
883.6404367654031
 20
3002.703688421
 30
0.0
 10
882.8488890261083
 20
3008.060896039612
 30
0.0
 10
882.1484039288557
 20
3011.800754088943
 30
0.0
 10
881.3250982792397
 20
3015.370011135889
 30
0.0
 10
880.6746129462658
 20
3017.672110688693
 30
0.0
 10
880.312144245845
 20
3018.819805153528
 30
0.0
 10
879.4026616611663
 20
3021.698209295418
 30
0.0
 10
878.3890106139561
 20
3024.125506955816
 30
0.0
 10
876.7686308245666
 20
3027.053777026645
 30
0.0
 10
876.2125011120452
 20
3027.910192285005
 30
0.0
 10
875.07622505359
 20
3029.382195717044
 30
0.0
 10
874.4962799800924
 20
3029.997540812965
 30
0.0
 10
873.9084959794782
 20
3030.491697109005
 30
0.0
  0
SPLINE
  5
13F
330
1F
100
AcDbEntity
  8
99-model
100
AcDbSpline
210
0.0
220
0.0
230
1.0
 70
     8
 71
     3
 72
    21
 73
    17
 74
     0
 42
0.000000001
 43
0.0000000001
 40
0.0
 40
0.0
 40
0.0
 40
0.0
 40
6.557428948705361
 40
6.557428948705361
 40
13.11505731422018
 40
13.11505731422018
 40
26.23936080734062
 40
26.23936080734062
 40
26.23936080734062
 40
31.12662826555038
 40
35.58830338360519
 40
44.59193379821018
 40
49.15738469835816
 40
53.49365183077377
 40
57.76991292388023
 40
62.23379733761248
 40
62.23379733761248
 40
62.23379733761248
 40
62.23379733761248
 10
839.2583694144168
 20
3030.491697109041
 30
0.0
 10
841.3013993991808
 20
3029.997540813004
 30
0.0
 10
843.317182702981
 20
3029.382195717083
 30
0.0
 10
847.2666710455924
 20
3027.910192285043
 30
0.0
 10
849.1996764981222
 20
3027.053777026686
 30
0.0
 10
854.8318211175601
 20
3024.125506955837
 30
0.0
 10
858.3550872856786
 20
3021.698209295452
 30
0.0
 10
861.5162828765551
 20
3018.81980515353
 30
0.0
 10
862.7209510394055
 20
3017.723223314431
 30
0.0
 10
864.916864257631
 20
3015.505725041555
 30
0.0
 10
868.7655471536154
 20
3010.741635287318
 30
0.0
 10
871.816352670442
 20
3005.526271599011
 30
0.0
 10
873.9818917531652
 20
2999.954754259419
 30
0.0
 10
875.133332791916
 20
2995.709747226944
 30
0.0
 10
875.8324005186796
 20
2991.401267227834
 30
0.0
 10
875.9914270564982
 20
2988.48799166966
 30
0.0
 10
875.991378028406
 20
2987.000000000133
 30
0.0
  0
LINE
  5
140
330
1F
100
AcDbEntity
  8
99-model
100
AcDbLine
 10
875.991378028406
 20
2987.000000000133
 30
0.0
 11
875.991378028406
 21
2344.999999999867
 31
0.0
  0
ARC
  5
141
330
1F
100
AcDbEntity
  8
99-model
100
AcDbCircle
 10
827.388217290828
 20
2985.231422411388
 30
0.0
 40
46.79094973543622
100
AcDbArc
 50
75.3043334137696
 51
88.20023197004853
  0
SPLINE
  5
142
330
1F
100
AcDbEntity
  8
99-model
100
AcDbSpline
210
0.0
220
0.0
230
1.0
 70
     8
 71
     3
 72
    10
 73
     6
 74
     0
 42
0.000000001
 43
0.0000000001
 40
0.0
 40
0.0
 40
0.0
 40
0.0
 40
6.144667443985142
 40
6.144667443985142
 40
12.07812270369638
 40
12.07812270369638
 40
12.07812270369638
 40
12.07812270369638
 10
873.9084959794782
 20
3030.491697109005
 30
0.0
 10
873.3572979259952
 20
3030.955095085214
 30
0.0
 10
872.5986250384813
 20
3031.335457604923
 30
0.0
 10
870.7008164614458
 20
3031.850533456175
 30
0.0
 10
869.5876173824922
 20
3031.989888323881
 30
0.0
 10
868.3050455673979
 20
3031.999470194436
 30
0.0
  0
LINE
  5
143
330
1F
100
AcDbEntity
  8
99-model
100
AcDbLine
 10
821.9450603664413
 20
2971.999999999999
 30
0.0
 11
821.9450603664291
 21
3032.0
 31
0.0
  0
SPLINE
  5
144
330
1F
100
AcDbEntity
  8
99-model
100
AcDbSpline
210
0.0
220
0.0
230
1.0
 70
     8
 71
     3
 72
    21
 73
    17
 74
     0
 42
0.000000001
 43
0.0000000001
 40
0.0
 40
0.0
 40
0.0
 40
0.0
 40
4.420151095957478
 40
8.789109185509952
 40
17.1830636666543
 40
21.22002088887449
 40
25.03207203263675
 40
28.59563948871633
 40
32.20624583208568
 40
32.20624583208568
 40
32.20624583208568
 40
45.33054932512251
 40
45.33054932512251
 40
51.88817769061789
 40
51.88817769061789
 40
58.44560663932568
 40
58.44560663932568
 40
58.44560663932568
 40
58.44560663932568
 10
15.52334059731402
 20
2344.999999999866
 30
0.0
 10
15.52345196063334
 20
2343.526649319662
 30
0.0
 10
15.56850313434234
 20
2340.596842593536
 30
0.0
 10
15.83642300331121
 20
2334.874892705039
 30
0.0
 10
16.35956323460368
 20
2329.296311578994
 30
0.0
 10
17.15111097389354
 20
2323.939103960381
 30
0.0
 10
17.85159607114656
 20
2320.199245911054
 30
0.0
 10
18.67490172076214
 20
2316.629988864111
 30
0.0
 10
19.32538705373599
 20
2314.32788931131
 30
0.0
 10
19.68785575415768
 20
2313.180194846472
 30
0.0
 10
20.59733833883456
 20
2310.301790704581
 30
0.0
 10
21.61098938604482
 20
2307.874493044184
 30
0.0
 10
23.23136917543343
 20
2304.946222973355
 30
0.0
 10
23.78749888795483
 20
2304.089807714995
 30
0.0
 10
24.92377494640823
 20
2302.617804282956
 30
0.0
 10
25.50372001990763
 20
2302.002459187034
 30
0.0
 10
26.09150402052092
 20
2301.508302890995
 30
0.0
  0
LINE
  5
145
330
1F
100
AcDbEntity
  8
99-model
100
AcDbLine
 10
15.52334059730856
 20
2987.000000000134
 30
0.0
 11
15.52334059731402
 21
2344.999999999866
 31
0.0
  0
SPLINE
  5
146
330
1F
100
AcDbEntity
  8
99-model
100
AcDbSpline
210
0.0
220
0.0
230
1.0
 70
     8
 71
     3
 72
    21
 73
    17
 74
     0
 42
0.000000001
 43
0.0000000001
 40
0.0
 40
0.0
 40
0.0
 40
0.0
 40
4.420151095957948
 40
8.789109185509037
 40
17.18306366665445
 40
21.22002088887433
 40
25.03207203263767
 40
28.59563948871769
 40
32.20624583208705
 40
32.20624583208705
 40
32.20624583208705
 40
45.33054932512388
 40
45.33054932512388
 40
51.88817769061927
 40
51.88817769061927
 40
58.44560663932705
 40
58.44560663932705
 40
58.44560663932705
 40
58.44560663932705
 10
15.52334059730856
 20
2987.000000000134
 30
0.0
 10
15.52345196062925
 20
2988.473350680333
 30
0.0
 10
15.56850313434052
 20
2991.40315740645
 30
0.0
 10
15.83642300330666
 20
2997.125107294957
 30
0.0
 10
16.35956323459959
 20
3002.703688421001
 30
0.0
 10
17.15111097389126
 20
3008.060896039614
 30
0.0
 10
17.85159607114701
 20
3011.800754088942
 30
0.0
 10
18.67490172076123
 20
3015.370011135892
 30
0.0
 10
19.32538705373281
 20
3017.672110688691
 30
0.0
 10
19.68785575415586
 20
3018.819805153528
 30
0.0
 10
20.59733833883365
 20
3021.698209295418
 30
0.0
 10
21.61098938604391
 20
3024.125506955816
 30
0.0
 10
23.23136917543343
 20
3027.053777026645
 30
0.0
 10
23.78749888795483
 20
3027.910192285005
 30
0.0
 10
24.92377494641005
 20
3029.382195717044
 30
0.0
 10
25.50372001990763
 20
3029.997540812965
 30
0.0
 10
26.09150402052182
 20
3030.491697109005
 30
0.0
  0
SPLINE
  5
147
330
1F
100
AcDbEntity
  8
99-model
100
AcDbSpline
210
0.0
220
0.0
230
1.0
 70
     8
 71
     3
 72
    21
 73
    17
 74
     0
 42
0.000000001
 43
0.0000000001
 40
0.0
 40
0.0
 40
0.0
 40
0.0
 40
6.557428948705361
 40
6.557428948705361
 40
13.11505731422018
 40
13.11505731422018
 40
26.23936080734062
 40
26.23936080734062
 40
26.23936080734062
 40
31.12662826554966
 40
35.58830338360443
 40
44.59193379820967
 40
49.15738469835755
 40
53.49365183077357
 40
57.76991292387982
 40
62.23379733761113
 40
62.23379733761113
 40
62.23379733761113
 40
62.23379733761113
 10
60.74163058558224
 20
2301.508302890958
 30
0.0
 10
58.69860060081737
 20
2302.002459186996
 30
0.0
 10
56.68281729701903
 20
2302.617804282917
 30
0.0
 10
52.73332895440763
 20
2304.089807714957
 30
0.0
 10
50.80032350187685
 20
2304.946222973314
 30
0.0
 10
45.16817888243895
 20
2307.874493044163
 30
0.0
 10
41.64491271432144
 20
2310.301790704548
 30
0.0
 10
38.48371712344397
 20
2313.180194846469
 30
0.0
 10
37.27904896059272
 20
2314.276776685569
 30
0.0
 10
35.08313574235899
 20
2316.494274958436
 30
0.0
 10
31.23445284638092
 20
2321.25836471268
 30
0.0
 10
28.18364732954797
 20
2326.473728400982
 30
0.0
 10
26.0181082468348
 20
2332.045245740581
 30
0.0
 10
24.86666720807762
 20
2336.29025277305
 30
0.0
 10
24.16759948131994
 20
2340.598732772165
 30
0.0
 10
24.0085729435018
 20
2343.51200833034
 30
0.0
 10
24.00862197159404
 20
2344.999999999866
 30
0.0
  0
SPLINE
  5
148
330
1F
100
AcDbEntity
  8
99-model
100
AcDbSpline
210
0.0
220
0.0
230
1.0
 70
     8
 71
     3
 72
    21
 73
    17
 74
     0
 42
0.000000001
 43
0.0000000001
 40
0.0
 40
0.0
 40
0.0
 40
0.0
 40
6.557428948705361
 40
6.557428948705361
 40
13.11505731422018
 40
13.11505731422018
 40
26.23936080734062
 40
26.23936080734062
 40
26.23936080734062
 40
31.12662826555069
 40
35.58830338360464
 40
44.59193379820995
 40
49.15738469835813
 40
53.49365183077352
 40
57.76991292388007
 40
62.23379733761236
 40
62.23379733761236
 40
62.23379733761236
 40
62.23379733761236
 10
60.74163058558315
 20
3030.491697109041
 30
0.0
 10
58.69860060081919
 20
3029.997540813004
 30
0.0
 10
56.68281729701903
 20
3029.382195717083
 30
0.0
 10
52.73332895440763
 20
3027.910192285043
 30
0.0
 10
50.80032350187776
 20
3027.053777026686
 30
0.0
 10
45.16817888243986
 20
3024.125506955837
 30
0.0
 10
41.64491271432144
 20
3021.698209295452
 30
0.0
 10
38.48371712344488
 20
3018.81980515353
 30
0.0
 10
37.27904896059817
 20
3017.72322331443
 30
0.0
 10
35.0831357423549
 20
3015.505725041555
 30
0.0
 10
31.23445284638365
 20
3010.741635287321
 30
0.0
 10
28.18364732954933
 20
3005.526271599017
 30
0.0
 10
26.01810824683207
 20
2999.954754259429
 30
0.0
 10
24.86666720807443
 20
2995.709747226953
 30
0.0
 10
24.16759948131994
 20
2991.401267227836
 30
0.0
 10
24.00857294349817
 20
2988.487991669658
 30
0.0
 10
24.00862197159404
 20
2987.000000000133
 30
0.0
  0
LINE
  5
149
330
1F
100
AcDbEntity
  8
99-model
100
AcDbLine
 10
24.00862197159404
 20
2987.000000000133
 30
0.0
 11
24.00862197159404
 21
2344.999999999867
 31
0.0
  0
ARC
  5
14A
330
1F
100
AcDbEntity
  8
99-model
100
AcDbCircle
 10
72.61178270917199
 20
2985.231422411388
 30
0.0
 40
46.79094973543578
100
AcDbArc
 50
91.79976802995209
 51
104.6956665862306
  0
SPLINE
  5
14B
330
1F
100
AcDbEntity
  8
99-model
100
AcDbSpline
210
0.0
220
0.0
230
1.0
 70
     8
 71
     3
 72
    10
 73
     6
 74
     0
 42
0.000000001
 43
0.0000000001
 40
0.0
 40
0.0
 40
0.0
 40
0.0
 40
6.144667443985142
 40
6.144667443985142
 40
12.07811824883808
 40
12.07811824883808
 40
12.07811824883808
 40
12.07811824883808
 10
26.09150402052182
 20
3030.491697109005
 30
0.0
 10
26.64270207400477
 20
3030.955095085214
 30
0.0
 10
27.40137496151874
 20
3031.335457604923
 30
0.0
 10
29.29918283857205
 20
3031.850533266195
 30
0.0
 10
30.41238094592154
 20
3031.989888114625
 30
0.0
 10
31.69495154372453
 20
3031.999470172854
 30
0.0
  0
ARC
  5
14C
330
1F
100
AcDbEntity
  8
99-model
100
AcDbCircle
 10
72.48134741174118
 20
2346.005345417366
 30
0.0
 40
46.0196452045791
100
AcDbArc
 50
255.2203536686959
 51
268.5716256882652
  0
LINE
  5
14D
330
1F
100
AcDbEntity
  8
99-model
100
AcDbLine
 10
78.05493963355866
 20
2971.999999999999
 30
0.0
 11
78.05493963357094
 21
3032.0
 31
0.0
  0
ARC
  5
14E
330
1F
100
AcDbEntity
  8
99-model
100
AcDbCircle
 10
872.0000000008913
 20
3059.99999999911
 30
0.0
 40
27.9999999991096
100
AcDbArc
 50
270.0000000001191
 51
0.0000000018219962
  0
ARC
  5
14F
330
1F
100
AcDbEntity
  8
99-model
100
AcDbCircle
 10
27.99999999920672
 20
3059.999999999208
 30
0.0
 40
27.99999999920783
100
AcDbArc
 50
179.999999998379
 51
269.9999999997231
  0
LINE
  5
150
330
1F
100
AcDbEntity
  8
99-model
100
AcDbLine
 10
818.9999999999877
 20
2299.999999999999
 30
0.0
 11
818.9999999999877
 21
2972.0
 31
0.0
  0
LINE
  5
151
330
1F
100
AcDbEntity
  8
99-model
100
AcDbLine
 10
81.00000000001273
 20
2971.999999999999
 30
0.0
 11
81.00000000001273
 21
2299.999999999999
 31
0.0
  0
LINE
  5
152
330
1F
100
AcDbEntity
  8
99-model
100
AcDbLine
 10
900.0
 20
1737.0
 30
0.0
 11
900.0
 21
63.0
 31
0.0
  0
LINE
  5
153
330
1F
100
AcDbEntity
  8
99-model
100
AcDbLine
 10
837.0
 20
0.0
 30
0.0
 11
63.0
 21
0.0
 31
0.0
  0
LINE
  5
154
330
1F
100
AcDbEntity
  8
99-model
100
AcDbLine
 10
0.0
 20
63.0
 30
0.0
 11
0.0
 21
1737.0
 31
0.0
  0
LINE
  5
155
330
1F
100
AcDbEntity
  8
99-model
100
AcDbLine
 10
63.0
 20
1800.0
 30
0.0
 11
837.0
 21
1800.0
 31
0.0
  0
ARC
  5
156
330
1F
100
AcDbEntity
  8
99-model
100
AcDbCircle
 10
836.9999999999991
 20
1736.999999999999
 30
0.0
 40
63.00000000000068
100
AcDbArc
 50
0.0000000000006204
 51
89.99999999999918
  0
ARC
  5
157
330
1F
100
AcDbEntity
  8
99-model
100
AcDbCircle
 10
836.9999999999994
 20
63.00000000000072
 30
0.0
 40
63.00000000000057
100
AcDbArc
 50
270.0000000000005
 51
359.9999999999993
  0
ARC
  5
158
330
1F
100
AcDbEntity
  8
99-model
100
AcDbCircle
 10
63.0000000000004
 20
62.99999999999994
 30
0.0
 40
62.99999999999994
100
AcDbArc
 50
179.9999999999999
 51
269.9999999999997
  0
ARC
  5
159
330
1F
100
AcDbEntity
  8
99-model
100
AcDbCircle
 10
62.99999999999955
 20
1737.0
 30
0.0
 40
62.99999999999955
100
AcDbArc
 50
89.99999999999959
 51
180.0000000000004
  0
ENDSEC
  0
SECTION
  2
OBJECTS
  0
DICTIONARY
  5
C
330
0
100
AcDbDictionary
281
     1
  3
ACAD_DETAILVIEWSTYLE
350
195
  3
ACAD_GROUP
350
D
  3
ACAD_LAYOUT
350
1A
  3
ACAD_MATERIAL
350
43
  3
ACAD_MLEADERSTYLE
350
194
  3
ACAD_MLINESTYLE
350
17
  3
ACAD_PLOTSETTINGS
350
19
  3
ACAD_PLOTSTYLENAME
350
E
  3
ACAD_SCALELIST
350
47
  3
ACAD_SECTIONVIEWSTYLE
350
196
  3
ACAD_TABLESTYLE
350
193
  3
ACAD_VISUALSTYLE
350
2A
  3
AcDbVariableDictionary
350
15A
  0
DICTIONARY
  5
195
102
{ACAD_REACTORS
330
C
102
}
330
C
100
AcDbDictionary
281
     1
  0
DICTIONARY
  5
D
102
{ACAD_REACTORS
330
C
102
}
330
C
100
AcDbDictionary
281
     1
  0
DICTIONARY
  5
1A
102
{ACAD_REACTORS
330
C
102
}
330
C
100
AcDbDictionary
281
     1
  3
Layout1
350
1E
  3
Layout2
350
26
  3
Model
350
22
  0
DICTIONARY
  5
43
102
{ACAD_REACTORS
330
C
102
}
330
C
100
AcDbDictionary
281
     1
  3
ByBlock
350
45
  3
ByLayer
350
44
  3
Global
350
46
  0
DICTIONARY
  5
194
102
{ACAD_REACTORS
330
C
102
}
330
C
100
AcDbDictionary
281
     1
  0
DICTIONARY
  5
17
102
{ACAD_REACTORS
330
C
102
}
330
C
100
AcDbDictionary
281
     1
  3
Standard
350
18
  0
DICTIONARY
  5
19
102
{ACAD_REACTORS
330
C
102
}
330
C
100
AcDbDictionary
281
     1
  0
ACDBDICTIONARYWDFLT
  5
E
102
{ACAD_REACTORS
330
C
102
}
330
C
100
AcDbDictionary
281
     1
  3
Normal
350
F
100
AcDbDictionaryWithDefault
340
F
  0
DICTIONARY
  5
47
102
{ACAD_REACTORS
330
C
102
}
330
C
100
AcDbDictionary
281
     1
  3
A0
350
48
  3
A1
350
49
  3
A2
350
4A
  3
A3
350
4B
  3
A4
350
4C
  3
A5
350
4D
  3
A6
350
4E
  3
A7
350
4F
  3
A8
350
50
  3
A9
350
51
  3
B0
350
52
  3
B1
350
53
  3
B2
350
54
  3
B3
350
55
  3
B4
350
56
  3
B5
350
57
  3
B6
350
58
  3
B7
350
59
  3
B8
350
5A
  3
B9
350
5B
  3
C0
350
5C
  3
C1
350
5D
  3
C2
350
5E
  3
C3
350
5F
  3
C4
350
60
  3
C5
350
61
  3
C6
350
62
  3
C7
350
63
  3
C8
350
64
  3
C9
350
65
  3
D0
350
66
  3
D1
350
67
  3
D2
350
68
  0
DICTIONARY
  5
196
102
{ACAD_REACTORS
330
C
102
}
330
C
100
AcDbDictionary
281
     1
  0
DICTIONARY
  5
193
102
{ACAD_REACTORS
330
C
102
}
330
C
100
AcDbDictionary
281
     1
  0
DICTIONARY
  5
2A
102
{ACAD_REACTORS
330
C
102
}
330
C
100
AcDbDictionary
281
     1
  3
2dWireframe
350
2F
  3
Basic
350
32
  3
Brighten
350
36
  3
ColorChange
350
3A
  3
Conceptual
350
34
  3
Dim
350
35
  3
EdgeColorOff
350
3D
  3
Facepattern
350
39
  3
Flat
350
2B
  3
FlatWithEdges
350
2C
  3
Gouraud
350
2D
  3
GouraudWithEdges
350
2E
  3
Hidden
350
31
  3
JitterOff
350
3B
  3
Linepattern
350
38
  3
OverhangOff
350
3C
  3
Realistic
350
33
  3
Shaded
350
42
  3
Shaded with edges
350
41
  3
Shades of Gray
350
3E
  3
Sketchy
350
3F
  3
Thicken
350
37
  3
Wireframe
350
30
  3
X-Ray
350
40
  0
DICTIONARY
  5
15A
102
{ACAD_REACTORS
330
C
102
}
330
C
100
AcDbDictionary
281
     1
  3
CANNOSCALE
350
15B
  3
MSLTSCALE
350
15C
  0
LAYOUT
  5
1E
102
{ACAD_REACTORS
330
1A
102
}
330
1A
100
AcDbPlotSettings
  1

  2
none_device
  4

  6

 40
0.0
 41
0.0
 42
0.0
 43
0.0
 44
0.0
 45
0.0
 46
0.0
 47
0.0
 48
0.0
 49
0.0
140
0.0
141
0.0
142
1.0
143
1.0
 70
   688
 72
     0
 73
     0
 74
     5
  7

 75
    16
 76
     0
 77
     2
 78
   300
147
1.0
148
0.0
149
0.0
100
AcDbLayout
  1
Layout1
 70
     1
 71
     1
 10
0.0
 20
0.0
 11
12.0
 21
9.0
 12
0.0
 22
0.0
 32
0.0
 14
1.000000000000000E+20
 24
1.000000000000000E+20
 34
1.000000000000000E+20
 15
-1.000000000000000E+20
 25
-1.000000000000000E+20
 35
-1.000000000000000E+20
146
0.0
 13
0.0
 23
0.0
 33
0.0
 16
1.0
 26
0.0
 36
0.0
 17
0.0
 27
1.0
 37
0.0
 76
     0
330
1B
  0
LAYOUT
  5
26
102
{ACAD_REACTORS
330
1A
102
}
330
1A
100
AcDbPlotSettings
  1

  2
none_device
  4

  6

 40
0.0
 41
0.0
 42
0.0
 43
0.0
 44
0.0
 45
0.0
 46
0.0
 47
0.0
 48
0.0
 49
0.0
140
0.0
141
0.0
142
1.0
143
1.0
 70
   688
 72
     0
 73
     0
 74
     5
  7

 75
    16
 76
     0
 77
     2
 78
   300
147
1.0
148
0.0
149
0.0
100
AcDbLayout
  1
Layout2
 70
     1
 71
     2
 10
0.0
 20
0.0
 11
0.0
 21
0.0
 12
0.0
 22
0.0
 32
0.0
 14
0.0
 24
0.0
 34
0.0
 15
0.0
 25
0.0
 35
0.0
146
0.0
 13
0.0
 23
0.0
 33
0.0
 16
1.0
 26
0.0
 36
0.0
 17
0.0
 27
1.0
 37
0.0
 76
     0
330
23
  0
LAYOUT
  5
22
102
{ACAD_REACTORS
330
1A
102
}
330
1A
100
AcDbPlotSettings
  1

  2
none_device
  4
Letter_(8.50_x_11.00_Inches)
  6

 40
6.35
 41
6.35
 42
6.35000508
 43
6.35000508
 44
215.9
 45
279.4
 46
0.0
 47
0.0
 48
0.0
 49
0.0
140
0.0
141
0.0
142
1.0
143
1.0
 70
  1712
 72
     0
 73
     0
 74
     0
  7

 75
     0
 76
     0
 77
     2
 78
   300
147
1.0
148
0.0
149
0.0
100
AcDbLayout
  1
Model
 70
     1
 71
     0
 10
0.0
 20
0.0
 11
12.0
 21
9.0
 12
0.0
 22
0.0
 32
0.0
 14
-0.000000000001112
 24
0.0
 34
0.0
 15
4168.953318805385
 25
13180.0
 35
0.0
146
0.0
 13
0.0
 23
0.0
 33
0.0
 16
1.0
 26
0.0
 36
0.0
 17
0.0
 27
1.0
 37
0.0
 76
     0
330
1F
331
29
  0
MATERIAL
  5
45
102
{ACAD_REACTORS
330
43
102
}
102
{ACAD_XDICTIONARY
360
18F
102
}
330
43
100
AcDbMaterial
  1
ByBlock
  0
MATERIAL
  5
44
102
{ACAD_REACTORS
330
43
102
}
102
{ACAD_XDICTIONARY
360
18D
102
}
330
43
100
AcDbMaterial
  1
ByLayer
  0
MATERIAL
  5
46
102
{ACAD_REACTORS
330
43
102
}
102
{ACAD_XDICTIONARY
360
191
102
}
330
43
100
AcDbMaterial
  1
Global
  0
MLINESTYLE
  5
18
102
{ACAD_REACTORS
330
17
102
}
330
17
100
AcDbMlineStyle
  2
Standard
 70
     0
  3

 62
   256
 51
90.0
 52
90.0
 71
     2
 49
0.5
 62
   256
  6
BYLAYER
 49
-0.5
 62
   256
  6
BYLAYER
  0
ACDBPLACEHOLDER
  5
F
102
{ACAD_REACTORS
330
E
102
}
330
E
  0
SCALE
  5
48
102
{ACAD_REACTORS
330
47
102
}
330
47
100
AcDbScale
 70
     0
300
1:1
140
1.0
141
1.0
290
     1
  0
SCALE
  5
49
102
{ACAD_REACTORS
330
47
102
}
330
47
100
AcDbScale
 70
     0
300
1:2
140
1.0
141
2.0
290
     0
  0
SCALE
  5
4A
102
{ACAD_REACTORS
330
47
102
}
330
47
100
AcDbScale
 70
     0
300
1:4
140
1.0
141
4.0
290
     0
  0
SCALE
  5
4B
102
{ACAD_REACTORS
330
47
102
}
330
47
100
AcDbScale
 70
     0
300
1:5
140
1.0
141
5.0
290
     0
  0
SCALE
  5
4C
102
{ACAD_REACTORS
330
47
102
}
330
47
100
AcDbScale
 70
     0
300
1:8
140
1.0
141
8.0
290
     0
  0
SCALE
  5
4D
102
{ACAD_REACTORS
330
47
102
}
330
47
100
AcDbScale
 70
     0
300
1:10
140
1.0
141
10.0
290
     0
  0
SCALE
  5
4E
102
{ACAD_REACTORS
330
47
102
}
330
47
100
AcDbScale
 70
     0
300
1:16
140
1.0
141
16.0
290
     0
  0
SCALE
  5
4F
102
{ACAD_REACTORS
330
47
102
}
330
47
100
AcDbScale
 70
     0
300
1:20
140
1.0
141
20.0
290
     0
  0
SCALE
  5
50
102
{ACAD_REACTORS
330
47
102
}
330
47
100
AcDbScale
 70
     0
300
1:30
140
1.0
141
30.0
290
     0
  0
SCALE
  5
51
102
{ACAD_REACTORS
330
47
102
}
330
47
100
AcDbScale
 70
     0
300
1:40
140
1.0
141
40.0
290
     0
  0
SCALE
  5
52
102
{ACAD_REACTORS
330
47
102
}
330
47
100
AcDbScale
 70
     0
300
1:50
140
1.0
141
50.0
290
     0
  0
SCALE
  5
53
102
{ACAD_REACTORS
330
47
102
}
330
47
100
AcDbScale
 70
     0
300
1:100
140
1.0
141
100.0
290
     0
  0
SCALE
  5
54
102
{ACAD_REACTORS
330
47
102
}
330
47
100
AcDbScale
 70
     0
300
2:1
140
2.0
141
1.0
290
     0
  0
SCALE
  5
55
102
{ACAD_REACTORS
330
47
102
}
330
47
100
AcDbScale
 70
     0
300
4:1
140
4.0
141
1.0
290
     0
  0
SCALE
  5
56
102
{ACAD_REACTORS
330
47
102
}
330
47
100
AcDbScale
 70
     0
300
8:1
140
8.0
141
1.0
290
     0
  0
SCALE
  5
57
102
{ACAD_REACTORS
330
47
102
}
330
47
100
AcDbScale
 70
     0
300
10:1
140
10.0
141
1.0
290
     0
  0
SCALE
  5
58
102
{ACAD_REACTORS
330
47
102
}
330
47
100
AcDbScale
 70
     0
300
100:1
140
100.0
141
1.0
290
     0
  0
SCALE
  5
59
102
{ACAD_REACTORS
330
47
102
}
330
47
100
AcDbScale
 70
     0
300
1/128" = 1'-0"
140
0.0078125
141
12.0
290
     0
  0
SCALE
  5
5A
102
{ACAD_REACTORS
330
47
102
}
330
47
100
AcDbScale
 70
     0
300
1/64" = 1'-0"
140
0.015625
141
12.0
290
     0
  0
SCALE
  5
5B
102
{ACAD_REACTORS
330
47
102
}
330
47
100
AcDbScale
 70
     0
300
1/32" = 1'-0"
140
0.03125
141
12.0
290
     0
  0
SCALE
  5
5C
102
{ACAD_REACTORS
330
47
102
}
330
47
100
AcDbScale
 70
     0
300
1/16" = 1'-0"
140
0.0625
141
12.0
290
     0
  0
SCALE
  5
5D
102
{ACAD_REACTORS
330
47
102
}
330
47
100
AcDbScale
 70
     0
300
3/32" = 1'-0"
140
0.09375
141
12.0
290
     0
  0
SCALE
  5
5E
102
{ACAD_REACTORS
330
47
102
}
330
47
100
AcDbScale
 70
     0
300
1/8" = 1'-0"
140
0.125
141
12.0
290
     0
  0
SCALE
  5
5F
102
{ACAD_REACTORS
330
47
102
}
330
47
100
AcDbScale
 70
     0
300
3/16" = 1'-0"
140
0.1875
141
12.0
290
     0
  0
SCALE
  5
60
102
{ACAD_REACTORS
330
47
102
}
330
47
100
AcDbScale
 70
     0
300
1/4" = 1'-0"
140
0.25
141
12.0
290
     0
  0
SCALE
  5
61
102
{ACAD_REACTORS
330
47
102
}
330
47
100
AcDbScale
 70
     0
300
3/8" = 1'-0"
140
0.375
141
12.0
290
     0
  0
SCALE
  5
62
102
{ACAD_REACTORS
330
47
102
}
330
47
100
AcDbScale
 70
     0
300
1/2" = 1'-0"
140
0.5
141
12.0
290
     0
  0
SCALE
  5
63
102
{ACAD_REACTORS
330
47
102
}
330
47
100
AcDbScale
 70
     0
300
3/4" = 1'-0"
140
0.75
141
12.0
290
     0
  0
SCALE
  5
64
102
{ACAD_REACTORS
330
47
102
}
330
47
100
AcDbScale
 70
     0
300
1" = 1'-0"
140
1.0
141
12.0
290
     0
  0
SCALE
  5
65
102
{ACAD_REACTORS
330
47
102
}
330
47
100
AcDbScale
 70
     0
300
1-1/2" = 1'-0"
140
1.5
141
12.0
290
     0
  0
SCALE
  5
66
102
{ACAD_REACTORS
330
47
102
}
330
47
100
AcDbScale
 70
     0
300
3" = 1'-0"
140
3.0
141
12.0
290
     0
  0
SCALE
  5
67
102
{ACAD_REACTORS
330
47
102
}
330
47
100
AcDbScale
 70
     0
300
6" = 1'-0"
140
6.0
141
12.0
290
     0
  0
SCALE
  5
68
102
{ACAD_REACTORS
330
47
102
}
330
47
100
AcDbScale
 70
     0
300
1'-0" = 1'-0"
140
12.0
141
12.0
290
     0
  0
VISUALSTYLE
  5
2F
102
{ACAD_REACTORS
330
2A
102
}
102
{ACAD_XDICTIONARY
360
165
102
}
330
2A
100
AcDbVisualStyle
  2
2dWireframe
 70
     4
 71
     0
 72
     2
 73
     0
 90
        0
 40
0.6
 41
30.0
 62
     5
 63
     7
421
 16777215
 74
     1
 91
        4
 64
     7
 65
   257
 75
     1
175
     1
 42
1.0
 92
        0
 66
   257
 43
1.0
 76
     1
 77
     6
 78
     2
 67
     7
 79
     5
170
     0
171
     0
290
     0
174
     0
 93
        1
 44
0.0
173
     0
291
     0
 45
0.0
1001
ACAD
1000
AcDbSavedByObjectVersion
1070
     0
  0
VISUALSTYLE
  5
32
102
{ACAD_REACTORS
330
2A
102
}
102
{ACAD_XDICTIONARY
360
16B
102
}
330
2A
100
AcDbVisualStyle
  2
Basic
 70
     7
 71
     1
 72
     0
 73
     1
 90
        0
 40
0.6
 41
30.0
 62
     5
 63
     7
421
 16777215
 74
     0
 91
        4
 64
     7
 65
   257
 75
     1
175
     1
 42
1.0
 92
        8
 66
     7
 43
1.0
 76
     1
 77
     6
 78
     2
 67
     7
 79
     5
170
     0
171
     0
290
     0
174
     0
 93
        1
 44
0.0
173
     0
291
     1
 45
0.0
1001
ACAD
1000
AcDbSavedByObjectVersion
1070
     0
  0
VISUALSTYLE
  5
36
102
{ACAD_REACTORS
330
2A
102
}
102
{ACAD_XDICTIONARY
360
173
102
}
330
2A
100
AcDbVisualStyle
  2
Brighten
 70
    12
 71
     2
 72
     2
 73
     0
 90
        0
 40
0.6
 41
30.0
 62
     5
 63
     7
421
 16777215
 74
     1
 91
        4
 64
     7
 65
   257
 75
     1
175
     1
 42
1.0
 92
        8
 66
     7
 43
1.0
 76
     1
 77
     6
 78
     2
 67
     7
 79
     5
170
     0
171
     0
290
     0
174
     0
 93
        1
 44
50.0
173
     0
291
     1
 45
0.0
1001
ACAD
1000
AcDbSavedByObjectVersion
1070
     0
  0
VISUALSTYLE
  5
3A
102
{ACAD_REACTORS
330
2A
102
}
102
{ACAD_XDICTIONARY
360
17B
102
}
330
2A
100
AcDbVisualStyle
  2
ColorChange
 70
    16
 71
     2
 72
     2
 73
     3
 90
        0
 40
0.6
 41
30.0
 62
     5
 63
     8
421
  8421504
 74
     1
 91
        4
 64
     7
 65
   257
 75
     1
175
     1
 42
1.0
 92
        8
 66
     8
424
  8421504
 43
1.0
 76
     1
 77
     6
 78
     2
 67
     7
 79
     5
170
     0
171
     0
290
     0
174
     0
 93
        1
 44
0.0
173
     0
291
     1
 45
0.0
1001
ACAD
1000
AcDbSavedByObjectVersion
1070
     0
  0
VISUALSTYLE
  5
34
102
{ACAD_REACTORS
330
2A
102
}
102
{ACAD_XDICTIONARY
360
16F
102
}
330
2A
100
AcDbVisualStyle
  2
Conceptual
 70
     9
 71
     3
 72
     2
 73
     0
 90
        0
 40
0.6
 41
30.0
 62
     5
 63
     7
421
 16777215
 74
     2
 91
        2
 64
     7
 65
   257
 75
     1
175
     1
 42
179.0
 92
        8
 66
     7
 43
1.0
 76
     1
 77
     6
 78
     2
 67
     7
 79
     3
170
     0
171
     0
290
     0
174
     0
 93
        1
 44
0.0
173
     0
291
     0
 45
0.0
1001
ACAD
1000
AcDbSavedByObjectVersion
1070
     0
  0
VISUALSTYLE
  5
35
102
{ACAD_REACTORS
330
2A
102
}
102
{ACAD_XDICTIONARY
360
171
102
}
330
2A
100
AcDbVisualStyle
  2
Dim
 70
    11
 71
     2
 72
     2
 73
     0
 90
        0
 40
0.6
 41
30.0
 62
     5
 63
     7
421
 16777215
 74
     1
 91
        4
 64
     7
 65
   257
 75
     1
175
     1
 42
1.0
 92
        8
 66
     7
 43
1.0
 76
     1
 77
     6
 78
     2
 67
     7
 79
     5
170
     0
171
     0
290
     0
174
     0
 93
        1
 44
-50.0
173
     0
291
     1
 45
0.0
1001
ACAD
1000
AcDbSavedByObjectVersion
1070
     0
  0
VISUALSTYLE
  5
3D
102
{ACAD_REACTORS
330
2A
102
}
102
{ACAD_XDICTIONARY
360
181
102
}
330
2A
100
AcDbVisualStyle
  2
EdgeColorOff
 70
    22
 71
     2
 72
     2
 73
     0
 90
        0
 40
0.6
 41
30.0
 62
     5
 63
     7
421
 16777215
 74
     1
 91
        4
 64
     7
 65
   257
 75
     1
175
     1
 42
1.0
 92
        8
 66
     7
 43
1.0
 76
     1
 77
     6
 78
     2
 67
     7
 79
     5
170
     0
171
     0
290
     0
174
     0
 93
        1
 44
0.0
173
     0
291
     1
 45
0.0
1001
ACAD
1000
AcDbSavedByObjectVersion
1070
     0
  0
VISUALSTYLE
  5
39
102
{ACAD_REACTORS
330
2A
102
}
102
{ACAD_XDICTIONARY
360
179
102
}
330
2A
100
AcDbVisualStyle
  2
Facepattern
 70
    15
 71
     2
 72
     2
 73
     0
 90
        0
 40
0.6
 41
30.0
 62
     5
 63
     7
421
 16777215
 74
     1
 91
        4
 64
     7
 65
   257
 75
     1
175
     1
 42
1.0
 92
        8
 66
     7
 43
1.0
 76
     1
 77
     6
 78
     2
 67
     7
 79
     5
170
     0
171
     0
290
     0
174
     0
 93
        1
 44
0.0
173
     0
291
     1
 45
0.0
1001
ACAD
1000
AcDbSavedByObjectVersion
1070
     0
  0
VISUALSTYLE
  5
2B
102
{ACAD_REACTORS
330
2A
102
}
102
{ACAD_XDICTIONARY
360
15D
102
}
330
2A
100
AcDbVisualStyle
  2
Flat
 70
     0
 71
     2
 72
     1
 73
     1
 90
        2
 40
0.6
 41
30.0
 62
     5
 63
     7
421
 16777215
 74
     0
 91
        0
 64
     7
 65
   257
 75
     1
175
     1
 42
1.0
 92
        8
 66
     7
 43
1.0
 76
     1
 77
     6
 78
     2
 67
     7
 79
     5
170
     0
171
     0
290
     0
174
     0
 93
       13
 44
0.0
173
     0
291
     1
 45
0.0
1001
ACAD
1000
AcDbSavedByObjectVersion
1070
     0
  0
VISUALSTYLE
  5
2C
102
{ACAD_REACTORS
330
2A
102
}
102
{ACAD_XDICTIONARY
360
15F
102
}
330
2A
100
AcDbVisualStyle
  2
FlatWithEdges
 70
     1
 71
     2
 72
     1
 73
     1
 90
        2
 40
0.6
 41
30.0
 62
     5
 63
     7
421
 16777215
 74
     1
 91
        0
 64
     7
 65
   257
 75
     1
175
     1
 42
1.0
 92
        0
 66
   257
 43
1.0
 76
     1
 77
     6
 78
     2
 67
     7
 79
     5
170
     0
171
     0
290
     0
174
     0
 93
       13
 44
0.0
173
     0
291
     1
 45
0.0
1001
ACAD
1000
AcDbSavedByObjectVersion
1070
     0
  0
VISUALSTYLE
  5
2D
102
{ACAD_REACTORS
330
2A
102
}
102
{ACAD_XDICTIONARY
360
161
102
}
330
2A
100
AcDbVisualStyle
  2
Gouraud
 70
     2
 71
     2
 72
     2
 73
     1
 90
        2
 40
0.6
 41
30.0
 62
     5
 63
     7
421
 16777215
 74
     0
 91
        0
 64
     7
 65
   257
 75
     1
175
     1
 42
1.0
 92
        0
 66
     7
 43
1.0
 76
     1
 77
     6
 78
     2
 67
     7
 79
     5
170
     0
171
     0
290
     0
174
     0
 93
       13
 44
0.0
173
     0
291
     1
 45
0.0
1001
ACAD
1000
AcDbSavedByObjectVersion
1070
     0
  0
VISUALSTYLE
  5
2E
102
{ACAD_REACTORS
330
2A
102
}
102
{ACAD_XDICTIONARY
360
163
102
}
330
2A
100
AcDbVisualStyle
  2
GouraudWithEdges
 70
     3
 71
     2
 72
     2
 73
     1
 90
        2
 40
0.6
 41
30.0
 62
     5
 63
     7
421
 16777215
 74
     1
 91
        0
 64
     7
 65
   257
 75
     1
175
     1
 42
1.0
 92
        0
 66
   257
 43
1.0
 76
     1
 77
     6
 78
     2
 67
     7
 79
     5
170
     0
171
     0
290
     0
174
     0
 93
       13
 44
0.0
173
     0
291
     1
 45
0.0
1001
ACAD
1000
AcDbSavedByObjectVersion
1070
     0
  0
VISUALSTYLE
  5
31
102
{ACAD_REACTORS
330
2A
102
}
102
{ACAD_XDICTIONARY
360
169
102
}
330
2A
100
AcDbVisualStyle
  2
Hidden
 70
     6
 71
     1
 72
     2
 73
     2
 90
        0
 40
0.6
 41
30.0
 62
     5
 63
     7
421
 16777215
 74
     2
 91
        2
 64
     7
 65
   257
 75
     2
175
     1
 42
40.0
 92
        0
 66
   257
 43
1.0
 76
     1
 77
     6
 78
     2
 67
     7
 79
     3
170
     0
171
     0
290
     0
174
     0
 93
        1
 44
0.0
173
     0
291
     0
 45
0.0
1001
ACAD
1000
AcDbSavedByObjectVersion
1070
     0
  0
VISUALSTYLE
  5
3B
102
{ACAD_REACTORS
330
2A
102
}
102
{ACAD_XDICTIONARY
360
17D
102
}
330
2A
100
AcDbVisualStyle
  2
JitterOff
 70
    20
 71
     2
 72
     2
 73
     0
 90
        0
 40
0.6
 41
30.0
 62
     5
 63
     7
421
 16777215
 74
     1
 91
        4
 64
     7
 65
   257
 75
     1
175
     1
 42
1.0
 92
       10
 66
     7
 43
1.0
 76
     1
 77
     6
 78
     2
 67
     7
 79
     5
170
     0
171
     0
290
     0
174
     0
 93
        1
 44
0.0
173
     0
291
     1
 45
0.0
1001
ACAD
1000
AcDbSavedByObjectVersion
1070
     0
  0
VISUALSTYLE
  5
38
102
{ACAD_REACTORS
330
2A
102
}
102
{ACAD_XDICTIONARY
360
177
102
}
330
2A
100
AcDbVisualStyle
  2
Linepattern
 70
    14
 71
     2
 72
     2
 73
     0
 90
        0
 40
0.6
 41
30.0
 62
     5
 63
     7
421
 16777215
 74
     1
 91
        4
 64
     7
 65
   257
 75
     7
175
     7
 42
1.0
 92
        8
 66
     7
 43
1.0
 76
     1
 77
     6
 78
     2
 67
     7
 79
     5
170
     0
171
     0
290
     0
174
     0
 93
        1
 44
0.0
173
     0
291
     1
 45
0.0
1001
ACAD
1000
AcDbSavedByObjectVersion
1070
     0
  0
VISUALSTYLE
  5
3C
102
{ACAD_REACTORS
330
2A
102
}
102
{ACAD_XDICTIONARY
360
17F
102
}
330
2A
100
AcDbVisualStyle
  2
OverhangOff
 70
    21
 71
     2
 72
     2
 73
     0
 90
        0
 40
0.6
 41
30.0
 62
     5
 63
     7
421
 16777215
 74
     1
 91
        4
 64
     7
 65
   257
 75
     1
175
     1
 42
1.0
 92
        9
 66
     7
 43
1.0
 76
     1
 77
     6
 78
     2
 67
     7
 79
     5
170
     0
171
     0
290
     0
174
     0
 93
        1
 44
0.0
173
     0
291
     1
 45
0.0
1001
ACAD
1000
AcDbSavedByObjectVersion
1070
     0
  0
VISUALSTYLE
  5
33
102
{ACAD_REACTORS
330
2A
102
}
102
{ACAD_XDICTIONARY
360
16D
102
}
330
2A
100
AcDbVisualStyle
  2
Realistic
 70
     8
 71
     2
 72
     3
 73
     0
 90
        2
 40
0.6
 41
30.0
 62
     5
 63
     7
421
 16777215
 74
     0
 91
        0
 64
     7
 65
   257
 75
     1
175
     1
 42
1.0
 92
        8
 66
   257
 43
1.0
 76
     1
 77
     6
 78
     2
 67
     7
 79
     3
170
     0
171
     0
290
     0
174
     0
 93
       13
 44
0.0
173
     0
291
     0
 45
0.0
1001
ACAD
1000
AcDbSavedByObjectVersion
1070
     0
  0
VISUALSTYLE
  5
42
102
{ACAD_REACTORS
330
2A
102
}
102
{ACAD_XDICTIONARY
360
18B
102
}
330
2A
100
AcDbVisualStyle
  2
Shaded
 70
    27
 71
     2
 72
     2
 73
     1
 90
        2
 40
0.6
 41
30.0
 62
     5
 63
     7
421
 16777215
 74
     0
 91
        4
 64
     7
 65
   257
 75
     1
175
     1
 42
1.0
 92
        8
 66
   257
 43
1.0
 76
     1
 77
     6
 78
     2
 67
     8
425
  7895160
 79
     3
170
     0
171
     0
290
     0
174
     0
 93
        5
 44
0.0
173
     0
291
     0
 45
0.0
1001
ACAD
1000
AcDbSavedByObjectVersion
1070
     0
  0
VISUALSTYLE
  5
41
102
{ACAD_REACTORS
330
2A
102
}
102
{ACAD_XDICTIONARY
360
189
102
}
330
2A
100
AcDbVisualStyle
  2
Shaded with edges
 70
    26
 71
     2
 72
     2
 73
     1
 90
        2
 40
0.6
 41
30.0
 62
     5
 63
     7
421
 16777215
 74
     1
 91
       10
 64
     7
 65
   257
 75
     2
175
     1
 42
1.0
 92
        8
 66
   257
 43
1.0
 76
     1
 77
     6
 78
     2
 67
     7
 79
     3
170
     0
171
     0
290
     0
174
     0
 93
        5
 44
0.0
173
     0
291
     0
 45
0.0
1001
ACAD
1000
AcDbSavedByObjectVersion
1070
     0
  0
VISUALSTYLE
  5
3E
102
{ACAD_REACTORS
330
2A
102
}
102
{ACAD_XDICTIONARY
360
183
102
}
330
2A
100
AcDbVisualStyle
  2
Shades of Gray
 70
    23
 71
     2
 72
     2
 73
     3
 90
        0
 40
0.6
 41
30.0
 62
     5
 63
     7
421
 16777215
 74
     2
 91
        2
 64
     7
 65
     7
 75
     1
175
     1
 42
40.0
 92
        8
 66
     7
 43
1.0
 76
     1
 77
     6
 78
     2
 67
     7
 79
     3
170
     0
171
     0
290
     0
174
     0
 93
        1
 44
0.0
173
     0
291
     0
 45
0.0
1001
ACAD
1000
AcDbSavedByObjectVersion
1070
     0
  0
VISUALSTYLE
  5
3F
102
{ACAD_REACTORS
330
2A
102
}
102
{ACAD_XDICTIONARY
360
185
102
}
330
2A
100
AcDbVisualStyle
  2
Sketchy
 70
    24
 71
     1
 72
     2
 73
     2
 90
        0
 40
0.6
 41
30.0
 62
     5
 63
     7
421
 16777215
 74
     2
 91
        2
 64
     7
 65
     7
 75
     1
175
     1
 42
40.0
 92
       11
 66
     7
 43
1.0
 76
     1
 77
     6
 78
     2
 67
     7
 79
     6
170
     0
171
     0
290
     0
174
     0
 93
        1
 44
0.0
173
     0
291
     0
 45
0.0
1001
ACAD
1000
AcDbSavedByObjectVersion
1070
     0
  0
VISUALSTYLE
  5
37
102
{ACAD_REACTORS
330
2A
102
}
102
{ACAD_XDICTIONARY
360
175
102
}
330
2A
100
AcDbVisualStyle
  2
Thicken
 70
    13
 71
     2
 72
     2
 73
     0
 90
        0
 40
0.6
 41
30.0
 62
     5
 63
     7
421
 16777215
 74
     1
 91
        4
 64
     7
 65
   257
 75
     1
175
     1
 42
1.0
 92
       12
 66
     7
 43
1.0
 76
     1
 77
     6
 78
     2
 67
     7
 79
     5
170
     0
171
     0
290
     0
174
     0
 93
        1
 44
0.0
173
     0
291
     1
 45
0.0
1001
ACAD
1000
AcDbSavedByObjectVersion
1070
     0
  0
VISUALSTYLE
  5
30
102
{ACAD_REACTORS
330
2A
102
}
102
{ACAD_XDICTIONARY
360
167
102
}
330
2A
100
AcDbVisualStyle
  2
Wireframe
 70
     5
 71
     0
 72
     2
 73
     0
 90
        0
 40
0.6
 41
30.0
 62
     5
 63
     7
421
 16777215
 74
     1
 91
        4
 64
     7
 65
   257
 75
     1
175
     1
 42
1.0
 92
        0
 66
   257
 43
1.0
 76
     1
 77
     6
 78
     2
 67
     7
 79
     3
170
     0
171
     0
290
     0
174
     0
 93
        1
 44
0.0
173
     0
291
     0
 45
0.0
1001
ACAD
1000
AcDbSavedByObjectVersion
1070
     0
  0
VISUALSTYLE
  5
40
102
{ACAD_REACTORS
330
2A
102
}
102
{ACAD_XDICTIONARY
360
187
102
}
330
2A
100
AcDbVisualStyle
  2
X-Ray
 70
    25
 71
     2
 72
     2
 73
     1
 90
        1
 40
0.5
 41
30.0
 62
     5
 63
     7
421
 16777215
 74
     1
 91
        0
 64
     7
 65
   257
 75
     1
175
     1
 42
1.0
 92
        8
 66
     7
 43
1.0
 76
     1
 77
     6
 78
     2
 67
     7
 79
     3
170
     0
171
     0
290
     0
174
     0
 93
       13
 44
0.0
173
     0
291
     0
 45
0.0
1001
ACAD
1000
AcDbSavedByObjectVersion
1070
     0
  0
DICTIONARYVAR
  5
15B
102
{ACAD_REACTORS
330
15A
102
}
330
15A
100
DictionaryVariables
280
     0
  1
1:1
  0
DICTIONARYVAR
  5
15C
102
{ACAD_REACTORS
330
15A
102
}
330
15A
100
DictionaryVariables
280
     0
  1
1
  0
DICTIONARY
  5
18F
330
45
100
AcDbDictionary
280
     1
281
     1
  3
ACAD_XREC_ROUNDTRIP
360
190
  0
DICTIONARY
  5
18D
330
44
100
AcDbDictionary
280
     1
281
     1
  3
ACAD_XREC_ROUNDTRIP
360
18E
  0
DICTIONARY
  5
191
330
46
100
AcDbDictionary
280
     1
281
     1
  3
ACAD_XREC_ROUNDTRIP
360
192
  0
DICTIONARY
  5
165
330
2F
100
AcDbDictionary
280
     1
281
     1
  3
ACAD_XREC_ROUNDTRIP
360
166
  0
DICTIONARY
  5
16B
330
32
100
AcDbDictionary
280
     1
281
     1
  3
ACAD_XREC_ROUNDTRIP
360
16C
  0
DICTIONARY
  5
173
330
36
100
AcDbDictionary
280
     1
281
     1
  3
ACAD_XREC_ROUNDTRIP
360
174
  0
DICTIONARY
  5
17B
330
3A
100
AcDbDictionary
280
     1
281
     1
  3
ACAD_XREC_ROUNDTRIP
360
17C
  0
DICTIONARY
  5
16F
330
34
100
AcDbDictionary
280
     1
281
     1
  3
ACAD_XREC_ROUNDTRIP
360
170
  0
DICTIONARY
  5
171
330
35
100
AcDbDictionary
280
     1
281
     1
  3
ACAD_XREC_ROUNDTRIP
360
172
  0
DICTIONARY
  5
181
330
3D
100
AcDbDictionary
280
     1
281
     1
  3
ACAD_XREC_ROUNDTRIP
360
182
  0
DICTIONARY
  5
179
330
39
100
AcDbDictionary
280
     1
281
     1
  3
ACAD_XREC_ROUNDTRIP
360
17A
  0
DICTIONARY
  5
15D
330
2B
100
AcDbDictionary
280
     1
281
     1
  3
ACAD_XREC_ROUNDTRIP
360
15E
  0
DICTIONARY
  5
15F
330
2C
100
AcDbDictionary
280
     1
281
     1
  3
ACAD_XREC_ROUNDTRIP
360
160
  0
DICTIONARY
  5
161
330
2D
100
AcDbDictionary
280
     1
281
     1
  3
ACAD_XREC_ROUNDTRIP
360
162
  0
DICTIONARY
  5
163
330
2E
100
AcDbDictionary
280
     1
281
     1
  3
ACAD_XREC_ROUNDTRIP
360
164
  0
DICTIONARY
  5
169
330
31
100
AcDbDictionary
280
     1
281
     1
  3
ACAD_XREC_ROUNDTRIP
360
16A
  0
DICTIONARY
  5
17D
330
3B
100
AcDbDictionary
280
     1
281
     1
  3
ACAD_XREC_ROUNDTRIP
360
17E
  0
DICTIONARY
  5
177
330
38
100
AcDbDictionary
280
     1
281
     1
  3
ACAD_XREC_ROUNDTRIP
360
178
  0
DICTIONARY
  5
17F
330
3C
100
AcDbDictionary
280
     1
281
     1
  3
ACAD_XREC_ROUNDTRIP
360
180
  0
DICTIONARY
  5
16D
330
33
100
AcDbDictionary
280
     1
281
     1
  3
ACAD_XREC_ROUNDTRIP
360
16E
  0
DICTIONARY
  5
18B
330
42
100
AcDbDictionary
280
     1
281
     1
  3
ACAD_XREC_ROUNDTRIP
360
18C
  0
DICTIONARY
  5
189
330
41
100
AcDbDictionary
280
     1
281
     1
  3
ACAD_XREC_ROUNDTRIP
360
18A
  0
DICTIONARY
  5
183
330
3E
100
AcDbDictionary
280
     1
281
     1
  3
ACAD_XREC_ROUNDTRIP
360
184
  0
DICTIONARY
  5
185
330
3F
100
AcDbDictionary
280
     1
281
     1
  3
ACAD_XREC_ROUNDTRIP
360
186
  0
DICTIONARY
  5
175
330
37
100
AcDbDictionary
280
     1
281
     1
  3
ACAD_XREC_ROUNDTRIP
360
176
  0
DICTIONARY
  5
167
330
30
100
AcDbDictionary
280
     1
281
     1
  3
ACAD_XREC_ROUNDTRIP
360
168
  0
DICTIONARY
  5
187
330
40
100
AcDbDictionary
280
     1
281
     1
  3
ACAD_XREC_ROUNDTRIP
360
188
  0
XRECORD
  5
190
102
{ACAD_REACTORS
330
18F
102
}
330
18F
100
AcDbXrecord
280
     1
102
MATERIAL
148
0.0
149
0.0
149
0.0
 93
        0
 94
      127
282
     0
 72
     1
 77
     1
171
     1
175
     1
179
     1
273
     0
  0
XRECORD
  5
18E
102
{ACAD_REACTORS
330
18D
102
}
330
18D
100
AcDbXrecord
280
     1
102
MATERIAL
148
0.0
149
0.0
149
0.0
 93
        0
 94
      127
282
     0
 72
     1
 77
     1
171
     1
175
     1
179
     1
273
     0
  0
XRECORD
  5
192
102
{ACAD_REACTORS
330
191
102
}
330
191
100
AcDbXrecord
280
     1
102
MATERIAL
148
0.0
149
0.0
149
0.0
 93
        0
 94
      127
282
     0
 72
     1
 77
     1
171
     1
175
     1
179
     1
273
     0
  0
XRECORD
  5
166
102
{ACAD_REACTORS
330
165
102
}
330
165
100
AcDbXrecord
280
     1
102
RTVSPropertyOp0
 70
     1
102
RTVSPropertyOp1
 70
     1
102
RTVSPropertyOp2
 70
     1
102
RTVSPropertyOp3
 70
     1
102
RTVSPropertyOp4
 70
     1
102
RTVSPropertyOp5
 70
     1
102
RTVSPropertyOp6
 70
     1
102
RTVSPropertyOp7
 70
     1
102
RTVSPropertyOp8
 70
     1
102
RTVSPropertyOp9
 70
     1
102
RTVSPropertyOp10
 70
     1
102
RTVSPropertyOp11
 70
     1
102
RTVSPropertyOp12
 70
     1
102
RTVSPropertyOp13
 70
     1
102
RTVSPropertyOp14
 70
     1
102
RTVSPropertyOp15
 70
     1
102
RTVSPropertyOp16
 70
     1
102
RTVSPropertyOp17
 70
     1
102
RTVSPropertyOp18
 70
     1
102
RTVSPropertyOp19
 70
     1
102
RTVSPropertyOp20
 70
     1
102
RTVSPropertyOp21
 70
     1
102
RTVSPropertyOp22
 70
     1
102
RTVSPropertyOp23
 70
     1
102
RTVSPropertyOp24
 70
     1
102
RTVSPropertyOp25
 70
     1
102
RTVSPropertyOp26
 70
     1
102
RTVSPropertyOp27
 70
     1
102
RTVSPropertyOp28
 70
     1
102
RTVSPropertyOp29
 70
     1
102
RTVSPropertyOp30
 70
     1
102
RTVSPropertyOp31
 70
     1
102
RTVSPropertyOp32
 70
     1
102
RTVSPropertyOp33
 70
     1
102
RTVSPropertyOp34
 70
     1
102
RTVSPropertyOp35
 70
     1
102
RTVSPropertyOp36
 70
     1
102
RTVSPropertyOp37
 70
     1
102
RTVSPropertyOp38
 70
     1
102
RTVSPropertyOp39
 70
     1
102
RTVSPropertyOp40
 70
     1
102
RTVSPropertyOp41
 70
     1
102
RTVSPropertyOp42
 70
     1
102
RTVSPropertyOp43
 70
     1
102
RTVSPropertyOp44
 70
     1
102
RTVSPropertyOp45
 70
     1
102
RTVSPropertyOp46
 70
     1
102
RTVSPropertyOp47
 70
     1
102
RTVSPropertyOp48
 70
     1
102
RTVSPropertyOp49
 70
     1
102
RTVSPropertyOp50
 70
     1
102
RTVSPropertyOp51
 70
     0
102
RTVSPropertyOp52
 70
     0
102
RTVSPropertyOp53
 70
     1
102
RTVSPropertyOp54
 70
     1
102
RTVSPropertyOp55
 70
     1
102
RTVSPropertyOp56
 70
     1
102
RTVSPropertyOp57
 70
     1
102
RTVSPost2010Prop28
280
     1
102
RTVSPost2010PropOp28
 70
     1
102
RTVSPost2010Prop29
280
     1
102
RTVSPost2010PropOp29
 70
     1
102
RTVSPost2010Prop30
280
     0
102
RTVSPost2010PropOp30
 70
     1
102
RTVSPost2010Prop31
280
     0
102
RTVSPost2010PropOp31
 70
     1
102
RTVSPost2010Prop32
280
     0
102
RTVSPost2010PropOp32
 70
     1
102
RTVSPost2010Prop33
280
     0
102
RTVSPost2010PropOp33
 70
     1
102
RTVSPost2010Prop34
280
     0
102
RTVSPost2010PropOp34
 70
     1
102
RTVSPost2010Prop35
280
     0
102
RTVSPost2010PropOp35
 70
     1
102
RTVSPost2010Prop36
280
     0
102
RTVSPost2010PropOp36
 70
     1
102
RTVSPost2010Prop37
 90
       50
102
RTVSPost2010PropOp37
 70
     1
102
RTVSPost2010Prop38
140
0.0
102
RTVSPost2010PropOp38
 70
     1
102
RTVSPost2010Prop39
140
1.0
102
RTVSPost2010PropOp39
 70
     1
102
RTVSPost2010Prop40
 90
        0
102
RTVSPost2010PropOp40
 70
     1
102
RTVSPost2010Prop41ColorIndex
 90
       18
102
RTVSPost2010Prop41ColorRGB
 90
        0
102
RTVSPost2010PropOp41
 70
     1
102
RTVSPost2010Prop42
 90
       50
102
RTVSPost2010PropOp42
 70
     1
102
RTVSPost2010Prop43
 90
        3
102
RTVSPost2010PropOp43
 70
     1
102
RTVSPost2010Prop44ColorIndex
 90
        5
102
RTVSPost2010Prop44ColorRGB
 90
      255
102
RTVSPost2010PropOp44
 70
     1
102
RTVSPost2010Prop45
280
     0
102
RTVSPost2010PropOp45
 70
     1
102
RTVSPost2010Prop46
 90
       50
102
RTVSPost2010PropOp46
 70
     1
102
RTVSPost2010Prop47
 90
       50
102
RTVSPost2010PropOp47
 70
     1
102
RTVSPost2010Prop48
 90
       50
102
RTVSPost2010PropOp48
 70
     1
102
RTVSPost2010Prop49
280
     0
102
RTVSPost2010PropOp49
 70
     1
102
RTVSPost2010Prop50
 90
       50
102
RTVSPost2010PropOp50
 70
     1
102
RTVSPost2010Prop51ColorIndex
 90
      256
102
RTVSPost2010Prop51ColorRGB
 90
-16777216
102
RTVSPost2010PropOp51
 70
     0
102
RTVSPost2010Prop52
140
1.0
102
RTVSPost2010PropOp52
 70
     0
102
RTVSPost2010Prop53
 90
        2
102
RTVSPost2010PropOp53
 70
     1
102
RTVSPost2010Prop54
  1
strokes_ogs.tif
102
RTVSPost2010PropOp54
 70
     1
102
RTVSPost2010Prop55
280
     0
102
RTVSPost2010PropOp55
 70
     1
102
RTVSPost2010Prop56
140
1.0
102
RTVSPost2010PropOp56
 70
     1
102
RTVSPost2010Prop57
140
1.0
102
RTVSPost2010PropOp57
 70
     1
  0
XRECORD
  5
16C
102
{ACAD_REACTORS
330
16B
102
}
330
16B
100
AcDbXrecord
280
     1
102
RTVSPropertyOp0
 70
     1
102
RTVSPropertyOp1
 70
     1
102
RTVSPropertyOp2
 70
     1
102
RTVSPropertyOp3
 70
     1
102
RTVSPropertyOp4
 70
     1
102
RTVSPropertyOp5
 70
     1
102
RTVSPropertyOp6
 70
     1
102
RTVSPropertyOp7
 70
     1
102
RTVSPropertyOp8
 70
     1
102
RTVSPropertyOp9
 70
     1
102
RTVSPropertyOp10
 70
     1
102
RTVSPropertyOp11
 70
     1
102
RTVSPropertyOp12
 70
     1
102
RTVSPropertyOp13
 70
     1
102
RTVSPropertyOp14
 70
     1
102
RTVSPropertyOp15
 70
     1
102
RTVSPropertyOp16
 70
     1
102
RTVSPropertyOp17
 70
     1
102
RTVSPropertyOp18
 70
     1
102
RTVSPropertyOp19
 70
     1
102
RTVSPropertyOp20
 70
     1
102
RTVSPropertyOp21
 70
     1
102
RTVSPropertyOp22
 70
     1
102
RTVSPropertyOp23
 70
     1
102
RTVSPropertyOp24
 70
     1
102
RTVSPropertyOp25
 70
     1
102
RTVSPropertyOp26
 70
     1
102
RTVSPropertyOp27
 70
     1
102
RTVSPropertyOp28
 70
     1
102
RTVSPropertyOp29
 70
     1
102
RTVSPropertyOp30
 70
     1
102
RTVSPropertyOp31
 70
     1
102
RTVSPropertyOp32
 70
     1
102
RTVSPropertyOp33
 70
     1
102
RTVSPropertyOp34
 70
     1
102
RTVSPropertyOp35
 70
     1
102
RTVSPropertyOp36
 70
     1
102
RTVSPropertyOp37
 70
     1
102
RTVSPropertyOp38
 70
     1
102
RTVSPropertyOp39
 70
     1
102
RTVSPropertyOp40
 70
     1
102
RTVSPropertyOp41
 70
     1
102
RTVSPropertyOp42
 70
     1
102
RTVSPropertyOp43
 70
     1
102
RTVSPropertyOp44
 70
     1
102
RTVSPropertyOp45
 70
     1
102
RTVSPropertyOp46
 70
     1
102
RTVSPropertyOp47
 70
     1
102
RTVSPropertyOp48
 70
     1
102
RTVSPropertyOp49
 70
     1
102
RTVSPropertyOp50
 70
     1
102
RTVSPropertyOp51
 70
     0
102
RTVSPropertyOp52
 70
     0
102
RTVSPropertyOp53
 70
     1
102
RTVSPropertyOp54
 70
     1
102
RTVSPropertyOp55
 70
     1
102
RTVSPropertyOp56
 70
     1
102
RTVSPropertyOp57
 70
     1
102
RTVSPost2010Prop28
280
     0
102
RTVSPost2010PropOp28
 70
     1
102
RTVSPost2010Prop29
280
     1
102
RTVSPost2010PropOp29
 70
     1
102
RTVSPost2010Prop30
280
     1
102
RTVSPost2010PropOp30
 70
     1
102
RTVSPost2010Prop31
280
     0
102
RTVSPost2010PropOp31
 70
     1
102
RTVSPost2010Prop32
280
     0
102
RTVSPost2010PropOp32
 70
     1
102
RTVSPost2010Prop33
280
     0
102
RTVSPost2010PropOp33
 70
     1
102
RTVSPost2010Prop34
280
     0
102
RTVSPost2010PropOp34
 70
     1
102
RTVSPost2010Prop35
280
     0
102
RTVSPost2010PropOp35
 70
     1
102
RTVSPost2010Prop36
280
     0
102
RTVSPost2010PropOp36
 70
     1
102
RTVSPost2010Prop37
 90
       50
102
RTVSPost2010PropOp37
 70
     1
102
RTVSPost2010Prop38
140
0.0
102
RTVSPost2010PropOp38
 70
     1
102
RTVSPost2010Prop39
140
1.0
102
RTVSPost2010PropOp39
 70
     1
102
RTVSPost2010Prop40
 90
        0
102
RTVSPost2010PropOp40
 70
     1
102
RTVSPost2010Prop41ColorIndex
 90
       18
102
RTVSPost2010Prop41ColorRGB
 90
        0
102
RTVSPost2010PropOp41
 70
     1
102
RTVSPost2010Prop42
 90
       50
102
RTVSPost2010PropOp42
 70
     1
102
RTVSPost2010Prop43
 90
        3
102
RTVSPost2010PropOp43
 70
     1
102
RTVSPost2010Prop44ColorIndex
 90
        5
102
RTVSPost2010Prop44ColorRGB
 90
      255
102
RTVSPost2010PropOp44
 70
     1
102
RTVSPost2010Prop45
280
     0
102
RTVSPost2010PropOp45
 70
     1
102
RTVSPost2010Prop46
 90
       50
102
RTVSPost2010PropOp46
 70
     1
102
RTVSPost2010Prop47
 90
       50
102
RTVSPost2010PropOp47
 70
     1
102
RTVSPost2010Prop48
 90
       50
102
RTVSPost2010PropOp48
 70
     1
102
RTVSPost2010Prop49
280
     0
102
RTVSPost2010PropOp49
 70
     1
102
RTVSPost2010Prop50
 90
       50
102
RTVSPost2010PropOp50
 70
     1
102
RTVSPost2010Prop51ColorIndex
 90
      256
102
RTVSPost2010Prop51ColorRGB
 90
-16777216
102
RTVSPost2010PropOp51
 70
     0
102
RTVSPost2010Prop52
140
1.0
102
RTVSPost2010PropOp52
 70
     0
102
RTVSPost2010Prop53
 90
        2
102
RTVSPost2010PropOp53
 70
     1
102
RTVSPost2010Prop54
  1
strokes_ogs.tif
102
RTVSPost2010PropOp54
 70
     1
102
RTVSPost2010Prop55
280
     0
102
RTVSPost2010PropOp55
 70
     1
102
RTVSPost2010Prop56
140
1.0
102
RTVSPost2010PropOp56
 70
     1
102
RTVSPost2010Prop57
140
1.0
102
RTVSPost2010PropOp57
 70
     1
  0
XRECORD
  5
174
102
{ACAD_REACTORS
330
173
102
}
330
173
100
AcDbXrecord
280
     1
102
RTVSPropertyOp0
 70
     1
102
RTVSPropertyOp1
 70
     1
102
RTVSPropertyOp2
 70
     1
102
RTVSPropertyOp3
 70
     1
102
RTVSPropertyOp4
 70
     1
102
RTVSPropertyOp5
 70
     1
102
RTVSPropertyOp6
 70
     1
102
RTVSPropertyOp7
 70
     1
102
RTVSPropertyOp8
 70
     1
102
RTVSPropertyOp9
 70
     1
102
RTVSPropertyOp10
 70
     1
102
RTVSPropertyOp11
 70
     1
102
RTVSPropertyOp12
 70
     1
102
RTVSPropertyOp13
 70
     1
102
RTVSPropertyOp14
 70
     1
102
RTVSPropertyOp15
 70
     1
102
RTVSPropertyOp16
 70
     1
102
RTVSPropertyOp17
 70
     1
102
RTVSPropertyOp18
 70
     1
102
RTVSPropertyOp19
 70
     1
102
RTVSPropertyOp20
 70
     1
102
RTVSPropertyOp21
 70
     1
102
RTVSPropertyOp22
 70
     1
102
RTVSPropertyOp23
 70
     1
102
RTVSPropertyOp24
 70
     1
102
RTVSPropertyOp25
 70
     1
102
RTVSPropertyOp26
 70
     1
102
RTVSPropertyOp27
 70
     1
102
RTVSPropertyOp28
 70
     1
102
RTVSPropertyOp29
 70
     1
102
RTVSPropertyOp30
 70
     1
102
RTVSPropertyOp31
 70
     1
102
RTVSPropertyOp32
 70
     1
102
RTVSPropertyOp33
 70
     1
102
RTVSPropertyOp34
 70
     1
102
RTVSPropertyOp35
 70
     1
102
RTVSPropertyOp36
 70
     1
102
RTVSPropertyOp37
 70
     1
102
RTVSPropertyOp38
 70
     1
102
RTVSPropertyOp39
 70
     1
102
RTVSPropertyOp40
 70
     1
102
RTVSPropertyOp41
 70
     1
102
RTVSPropertyOp42
 70
     1
102
RTVSPropertyOp43
 70
     1
102
RTVSPropertyOp44
 70
     1
102
RTVSPropertyOp45
 70
     1
102
RTVSPropertyOp46
 70
     1
102
RTVSPropertyOp47
 70
     1
102
RTVSPropertyOp48
 70
     1
102
RTVSPropertyOp49
 70
     1
102
RTVSPropertyOp50
 70
     1
102
RTVSPropertyOp51
 70
     0
102
RTVSPropertyOp52
 70
     0
102
RTVSPropertyOp53
 70
     1
102
RTVSPropertyOp54
 70
     1
102
RTVSPropertyOp55
 70
     1
102
RTVSPropertyOp56
 70
     1
102
RTVSPropertyOp57
 70
     1
102
RTVSPost2010Prop28
280
     0
102
RTVSPost2010PropOp28
 70
     1
102
RTVSPost2010Prop29
280
     1
102
RTVSPost2010PropOp29
 70
     1
102
RTVSPost2010Prop30
280
     1
102
RTVSPost2010PropOp30
 70
     1
102
RTVSPost2010Prop31
280
     0
102
RTVSPost2010PropOp31
 70
     1
102
RTVSPost2010Prop32
280
     0
102
RTVSPost2010PropOp32
 70
     1
102
RTVSPost2010Prop33
280
     0
102
RTVSPost2010PropOp33
 70
     1
102
RTVSPost2010Prop34
280
     0
102
RTVSPost2010PropOp34
 70
     1
102
RTVSPost2010Prop35
280
     0
102
RTVSPost2010PropOp35
 70
     1
102
RTVSPost2010Prop36
280
     0
102
RTVSPost2010PropOp36
 70
     1
102
RTVSPost2010Prop37
 90
       50
102
RTVSPost2010PropOp37
 70
     1
102
RTVSPost2010Prop38
140
0.0
102
RTVSPost2010PropOp38
 70
     1
102
RTVSPost2010Prop39
140
1.0
102
RTVSPost2010PropOp39
 70
     1
102
RTVSPost2010Prop40
 90
        0
102
RTVSPost2010PropOp40
 70
     1
102
RTVSPost2010Prop41ColorIndex
 90
       18
102
RTVSPost2010Prop41ColorRGB
 90
        0
102
RTVSPost2010PropOp41
 70
     1
102
RTVSPost2010Prop42
 90
       50
102
RTVSPost2010PropOp42
 70
     1
102
RTVSPost2010Prop43
 90
        3
102
RTVSPost2010PropOp43
 70
     1
102
RTVSPost2010Prop44ColorIndex
 90
        5
102
RTVSPost2010Prop44ColorRGB
 90
      255
102
RTVSPost2010PropOp44
 70
     1
102
RTVSPost2010Prop45
280
     0
102
RTVSPost2010PropOp45
 70
     1
102
RTVSPost2010Prop46
 90
       50
102
RTVSPost2010PropOp46
 70
     1
102
RTVSPost2010Prop47
 90
       50
102
RTVSPost2010PropOp47
 70
     1
102
RTVSPost2010Prop48
 90
       50
102
RTVSPost2010PropOp48
 70
     1
102
RTVSPost2010Prop49
280
     0
102
RTVSPost2010PropOp49
 70
     1
102
RTVSPost2010Prop50
 90
       50
102
RTVSPost2010PropOp50
 70
     1
102
RTVSPost2010Prop51ColorIndex
 90
      256
102
RTVSPost2010Prop51ColorRGB
 90
-16777216
102
RTVSPost2010PropOp51
 70
     0
102
RTVSPost2010Prop52
140
1.0
102
RTVSPost2010PropOp52
 70
     0
102
RTVSPost2010Prop53
 90
        2
102
RTVSPost2010PropOp53
 70
     1
102
RTVSPost2010Prop54
  1
strokes_ogs.tif
102
RTVSPost2010PropOp54
 70
     1
102
RTVSPost2010Prop55
280
     0
102
RTVSPost2010PropOp55
 70
     1
102
RTVSPost2010Prop56
140
1.0
102
RTVSPost2010PropOp56
 70
     1
102
RTVSPost2010Prop57
140
1.0
102
RTVSPost2010PropOp57
 70
     1
  0
XRECORD
  5
17C
102
{ACAD_REACTORS
330
17B
102
}
330
17B
100
AcDbXrecord
280
     1
102
RTVSPropertyOp0
 70
     1
102
RTVSPropertyOp1
 70
     1
102
RTVSPropertyOp2
 70
     1
102
RTVSPropertyOp3
 70
     1
102
RTVSPropertyOp4
 70
     1
102
RTVSPropertyOp5
 70
     1
102
RTVSPropertyOp6
 70
     1
102
RTVSPropertyOp7
 70
     1
102
RTVSPropertyOp8
 70
     1
102
RTVSPropertyOp9
 70
     1
102
RTVSPropertyOp10
 70
     1
102
RTVSPropertyOp11
 70
     1
102
RTVSPropertyOp12
 70
     1
102
RTVSPropertyOp13
 70
     1
102
RTVSPropertyOp14
 70
     1
102
RTVSPropertyOp15
 70
     1
102
RTVSPropertyOp16
 70
     1
102
RTVSPropertyOp17
 70
     1
102
RTVSPropertyOp18
 70
     1
102
RTVSPropertyOp19
 70
     1
102
RTVSPropertyOp20
 70
     1
102
RTVSPropertyOp21
 70
     1
102
RTVSPropertyOp22
 70
     1
102
RTVSPropertyOp23
 70
     1
102
RTVSPropertyOp24
 70
     1
102
RTVSPropertyOp25
 70
     1
102
RTVSPropertyOp26
 70
     1
102
RTVSPropertyOp27
 70
     1
102
RTVSPropertyOp28
 70
     1
102
RTVSPropertyOp29
 70
     1
102
RTVSPropertyOp30
 70
     1
102
RTVSPropertyOp31
 70
     1
102
RTVSPropertyOp32
 70
     1
102
RTVSPropertyOp33
 70
     1
102
RTVSPropertyOp34
 70
     1
102
RTVSPropertyOp35
 70
     1
102
RTVSPropertyOp36
 70
     1
102
RTVSPropertyOp37
 70
     1
102
RTVSPropertyOp38
 70
     1
102
RTVSPropertyOp39
 70
     1
102
RTVSPropertyOp40
 70
     1
102
RTVSPropertyOp41
 70
     1
102
RTVSPropertyOp42
 70
     1
102
RTVSPropertyOp43
 70
     1
102
RTVSPropertyOp44
 70
     1
102
RTVSPropertyOp45
 70
     1
102
RTVSPropertyOp46
 70
     1
102
RTVSPropertyOp47
 70
     1
102
RTVSPropertyOp48
 70
     1
102
RTVSPropertyOp49
 70
     1
102
RTVSPropertyOp50
 70
     1
102
RTVSPropertyOp51
 70
     0
102
RTVSPropertyOp52
 70
     0
102
RTVSPropertyOp53
 70
     1
102
RTVSPropertyOp54
 70
     1
102
RTVSPropertyOp55
 70
     1
102
RTVSPropertyOp56
 70
     1
102
RTVSPropertyOp57
 70
     1
102
RTVSPost2010Prop28
280
     0
102
RTVSPost2010PropOp28
 70
     1
102
RTVSPost2010Prop29
280
     1
102
RTVSPost2010PropOp29
 70
     1
102
RTVSPost2010Prop30
280
     1
102
RTVSPost2010PropOp30
 70
     1
102
RTVSPost2010Prop31
280
     0
102
RTVSPost2010PropOp31
 70
     1
102
RTVSPost2010Prop32
280
     0
102
RTVSPost2010PropOp32
 70
     1
102
RTVSPost2010Prop33
280
     0
102
RTVSPost2010PropOp33
 70
     1
102
RTVSPost2010Prop34
280
     0
102
RTVSPost2010PropOp34
 70
     1
102
RTVSPost2010Prop35
280
     0
102
RTVSPost2010PropOp35
 70
     1
102
RTVSPost2010Prop36
280
     0
102
RTVSPost2010PropOp36
 70
     1
102
RTVSPost2010Prop37
 90
       50
102
RTVSPost2010PropOp37
 70
     1
102
RTVSPost2010Prop38
140
0.0
102
RTVSPost2010PropOp38
 70
     1
102
RTVSPost2010Prop39
140
1.0
102
RTVSPost2010PropOp39
 70
     1
102
RTVSPost2010Prop40
 90
        0
102
RTVSPost2010PropOp40
 70
     1
102
RTVSPost2010Prop41ColorIndex
 90
       18
102
RTVSPost2010Prop41ColorRGB
 90
        0
102
RTVSPost2010PropOp41
 70
     1
102
RTVSPost2010Prop42
 90
       50
102
RTVSPost2010PropOp42
 70
     1
102
RTVSPost2010Prop43
 90
        3
102
RTVSPost2010PropOp43
 70
     1
102
RTVSPost2010Prop44ColorIndex
 90
        5
102
RTVSPost2010Prop44ColorRGB
 90
      255
102
RTVSPost2010PropOp44
 70
     1
102
RTVSPost2010Prop45
280
     0
102
RTVSPost2010PropOp45
 70
     1
102
RTVSPost2010Prop46
 90
       50
102
RTVSPost2010PropOp46
 70
     1
102
RTVSPost2010Prop47
 90
       50
102
RTVSPost2010PropOp47
 70
     1
102
RTVSPost2010Prop48
 90
       50
102
RTVSPost2010PropOp48
 70
     1
102
RTVSPost2010Prop49
280
     0
102
RTVSPost2010PropOp49
 70
     1
102
RTVSPost2010Prop50
 90
       50
102
RTVSPost2010PropOp50
 70
     1
102
RTVSPost2010Prop51ColorIndex
 90
      256
102
RTVSPost2010Prop51ColorRGB
 90
-16777216
102
RTVSPost2010PropOp51
 70
     0
102
RTVSPost2010Prop52
140
1.0
102
RTVSPost2010PropOp52
 70
     0
102
RTVSPost2010Prop53
 90
        2
102
RTVSPost2010PropOp53
 70
     1
102
RTVSPost2010Prop54
  1
strokes_ogs.tif
102
RTVSPost2010PropOp54
 70
     1
102
RTVSPost2010Prop55
280
     0
102
RTVSPost2010PropOp55
 70
     1
102
RTVSPost2010Prop56
140
1.0
102
RTVSPost2010PropOp56
 70
     1
102
RTVSPost2010Prop57
140
1.0
102
RTVSPost2010PropOp57
 70
     1
  0
XRECORD
  5
170
102
{ACAD_REACTORS
330
16F
102
}
330
16F
100
AcDbXrecord
280
     1
102
RTVSPropertyOp0
 70
     1
102
RTVSPropertyOp1
 70
     1
102
RTVSPropertyOp2
 70
     1
102
RTVSPropertyOp3
 70
     1
102
RTVSPropertyOp4
 70
     1
102
RTVSPropertyOp5
 70
     1
102
RTVSPropertyOp6
 70
     1
102
RTVSPropertyOp7
 70
     1
102
RTVSPropertyOp8
 70
     1
102
RTVSPropertyOp9
 70
     1
102
RTVSPropertyOp10
 70
     1
102
RTVSPropertyOp11
 70
     1
102
RTVSPropertyOp12
 70
     1
102
RTVSPropertyOp13
 70
     1
102
RTVSPropertyOp14
 70
     1
102
RTVSPropertyOp15
 70
     1
102
RTVSPropertyOp16
 70
     1
102
RTVSPropertyOp17
 70
     1
102
RTVSPropertyOp18
 70
     1
102
RTVSPropertyOp19
 70
     1
102
RTVSPropertyOp20
 70
     1
102
RTVSPropertyOp21
 70
     1
102
RTVSPropertyOp22
 70
     1
102
RTVSPropertyOp23
 70
     1
102
RTVSPropertyOp24
 70
     1
102
RTVSPropertyOp25
 70
     1
102
RTVSPropertyOp26
 70
     1
102
RTVSPropertyOp27
 70
     1
102
RTVSPropertyOp28
 70
     1
102
RTVSPropertyOp29
 70
     1
102
RTVSPropertyOp30
 70
     1
102
RTVSPropertyOp31
 70
     1
102
RTVSPropertyOp32
 70
     1
102
RTVSPropertyOp33
 70
     1
102
RTVSPropertyOp34
 70
     1
102
RTVSPropertyOp35
 70
     1
102
RTVSPropertyOp36
 70
     1
102
RTVSPropertyOp37
 70
     1
102
RTVSPropertyOp38
 70
     1
102
RTVSPropertyOp39
 70
     1
102
RTVSPropertyOp40
 70
     1
102
RTVSPropertyOp41
 70
     1
102
RTVSPropertyOp42
 70
     1
102
RTVSPropertyOp43
 70
     1
102
RTVSPropertyOp44
 70
     1
102
RTVSPropertyOp45
 70
     1
102
RTVSPropertyOp46
 70
     1
102
RTVSPropertyOp47
 70
     1
102
RTVSPropertyOp48
 70
     1
102
RTVSPropertyOp49
 70
     1
102
RTVSPropertyOp50
 70
     1
102
RTVSPropertyOp51
 70
     0
102
RTVSPropertyOp52
 70
     0
102
RTVSPropertyOp53
 70
     1
102
RTVSPropertyOp54
 70
     1
102
RTVSPropertyOp55
 70
     1
102
RTVSPropertyOp56
 70
     1
102
RTVSPropertyOp57
 70
     1
102
RTVSPost2010Prop28
280
     0
102
RTVSPost2010PropOp28
 70
     1
102
RTVSPost2010Prop29
280
     1
102
RTVSPost2010PropOp29
 70
     1
102
RTVSPost2010Prop30
280
     1
102
RTVSPost2010PropOp30
 70
     1
102
RTVSPost2010Prop31
280
     0
102
RTVSPost2010PropOp31
 70
     1
102
RTVSPost2010Prop32
280
     0
102
RTVSPost2010PropOp32
 70
     1
102
RTVSPost2010Prop33
280
     0
102
RTVSPost2010PropOp33
 70
     1
102
RTVSPost2010Prop34
280
     0
102
RTVSPost2010PropOp34
 70
     1
102
RTVSPost2010Prop35
280
     0
102
RTVSPost2010PropOp35
 70
     1
102
RTVSPost2010Prop36
280
     0
102
RTVSPost2010PropOp36
 70
     1
102
RTVSPost2010Prop37
 90
       50
102
RTVSPost2010PropOp37
 70
     1
102
RTVSPost2010Prop38
140
0.0
102
RTVSPost2010PropOp38
 70
     1
102
RTVSPost2010Prop39
140
1.0
102
RTVSPost2010PropOp39
 70
     1
102
RTVSPost2010Prop40
 90
        0
102
RTVSPost2010PropOp40
 70
     1
102
RTVSPost2010Prop41ColorIndex
 90
       18
102
RTVSPost2010Prop41ColorRGB
 90
        0
102
RTVSPost2010PropOp41
 70
     1
102
RTVSPost2010Prop42
 90
       50
102
RTVSPost2010PropOp42
 70
     1
102
RTVSPost2010Prop43
 90
        3
102
RTVSPost2010PropOp43
 70
     1
102
RTVSPost2010Prop44ColorIndex
 90
        5
102
RTVSPost2010Prop44ColorRGB
 90
      255
102
RTVSPost2010PropOp44
 70
     1
102
RTVSPost2010Prop45
280
     0
102
RTVSPost2010PropOp45
 70
     1
102
RTVSPost2010Prop46
 90
       50
102
RTVSPost2010PropOp46
 70
     1
102
RTVSPost2010Prop47
 90
       50
102
RTVSPost2010PropOp47
 70
     1
102
RTVSPost2010Prop48
 90
       50
102
RTVSPost2010PropOp48
 70
     1
102
RTVSPost2010Prop49
280
     0
102
RTVSPost2010PropOp49
 70
     1
102
RTVSPost2010Prop50
 90
       50
102
RTVSPost2010PropOp50
 70
     1
102
RTVSPost2010Prop51ColorIndex
 90
      256
102
RTVSPost2010Prop51ColorRGB
 90
-16777216
102
RTVSPost2010PropOp51
 70
     0
102
RTVSPost2010Prop52
140
1.0
102
RTVSPost2010PropOp52
 70
     0
102
RTVSPost2010Prop53
 90
        2
102
RTVSPost2010PropOp53
 70
     1
102
RTVSPost2010Prop54
  1
strokes_ogs.tif
102
RTVSPost2010PropOp54
 70
     1
102
RTVSPost2010Prop55
280
     0
102
RTVSPost2010PropOp55
 70
     1
102
RTVSPost2010Prop56
140
1.0
102
RTVSPost2010PropOp56
 70
     1
102
RTVSPost2010Prop57
140
1.0
102
RTVSPost2010PropOp57
 70
     1
  0
XRECORD
  5
172
102
{ACAD_REACTORS
330
171
102
}
330
171
100
AcDbXrecord
280
     1
102
RTVSPropertyOp0
 70
     1
102
RTVSPropertyOp1
 70
     1
102
RTVSPropertyOp2
 70
     1
102
RTVSPropertyOp3
 70
     1
102
RTVSPropertyOp4
 70
     1
102
RTVSPropertyOp5
 70
     1
102
RTVSPropertyOp6
 70
     1
102
RTVSPropertyOp7
 70
     1
102
RTVSPropertyOp8
 70
     1
102
RTVSPropertyOp9
 70
     1
102
RTVSPropertyOp10
 70
     1
102
RTVSPropertyOp11
 70
     1
102
RTVSPropertyOp12
 70
     1
102
RTVSPropertyOp13
 70
     1
102
RTVSPropertyOp14
 70
     1
102
RTVSPropertyOp15
 70
     1
102
RTVSPropertyOp16
 70
     1
102
RTVSPropertyOp17
 70
     1
102
RTVSPropertyOp18
 70
     1
102
RTVSPropertyOp19
 70
     1
102
RTVSPropertyOp20
 70
     1
102
RTVSPropertyOp21
 70
     1
102
RTVSPropertyOp22
 70
     1
102
RTVSPropertyOp23
 70
     1
102
RTVSPropertyOp24
 70
     1
102
RTVSPropertyOp25
 70
     1
102
RTVSPropertyOp26
 70
     1
102
RTVSPropertyOp27
 70
     1
102
RTVSPropertyOp28
 70
     1
102
RTVSPropertyOp29
 70
     1
102
RTVSPropertyOp30
 70
     1
102
RTVSPropertyOp31
 70
     1
102
RTVSPropertyOp32
 70
     1
102
RTVSPropertyOp33
 70
     1
102
RTVSPropertyOp34
 70
     1
102
RTVSPropertyOp35
 70
     1
102
RTVSPropertyOp36
 70
     1
102
RTVSPropertyOp37
 70
     1
102
RTVSPropertyOp38
 70
     1
102
RTVSPropertyOp39
 70
     1
102
RTVSPropertyOp40
 70
     1
102
RTVSPropertyOp41
 70
     1
102
RTVSPropertyOp42
 70
     1
102
RTVSPropertyOp43
 70
     1
102
RTVSPropertyOp44
 70
     1
102
RTVSPropertyOp45
 70
     1
102
RTVSPropertyOp46
 70
     1
102
RTVSPropertyOp47
 70
     1
102
RTVSPropertyOp48
 70
     1
102
RTVSPropertyOp49
 70
     1
102
RTVSPropertyOp50
 70
     1
102
RTVSPropertyOp51
 70
     0
102
RTVSPropertyOp52
 70
     0
102
RTVSPropertyOp53
 70
     1
102
RTVSPropertyOp54
 70
     1
102
RTVSPropertyOp55
 70
     1
102
RTVSPropertyOp56
 70
     1
102
RTVSPropertyOp57
 70
     1
102
RTVSPost2010Prop28
280
     0
102
RTVSPost2010PropOp28
 70
     1
102
RTVSPost2010Prop29
280
     1
102
RTVSPost2010PropOp29
 70
     1
102
RTVSPost2010Prop30
280
     1
102
RTVSPost2010PropOp30
 70
     1
102
RTVSPost2010Prop31
280
     0
102
RTVSPost2010PropOp31
 70
     1
102
RTVSPost2010Prop32
280
     0
102
RTVSPost2010PropOp32
 70
     1
102
RTVSPost2010Prop33
280
     0
102
RTVSPost2010PropOp33
 70
     1
102
RTVSPost2010Prop34
280
     0
102
RTVSPost2010PropOp34
 70
     1
102
RTVSPost2010Prop35
280
     0
102
RTVSPost2010PropOp35
 70
     1
102
RTVSPost2010Prop36
280
     0
102
RTVSPost2010PropOp36
 70
     1
102
RTVSPost2010Prop37
 90
       50
102
RTVSPost2010PropOp37
 70
     1
102
RTVSPost2010Prop38
140
0.0
102
RTVSPost2010PropOp38
 70
     1
102
RTVSPost2010Prop39
140
1.0
102
RTVSPost2010PropOp39
 70
     1
102
RTVSPost2010Prop40
 90
        0
102
RTVSPost2010PropOp40
 70
     1
102
RTVSPost2010Prop41ColorIndex
 90
       18
102
RTVSPost2010Prop41ColorRGB
 90
        0
102
RTVSPost2010PropOp41
 70
     1
102
RTVSPost2010Prop42
 90
       50
102
RTVSPost2010PropOp42
 70
     1
102
RTVSPost2010Prop43
 90
        3
102
RTVSPost2010PropOp43
 70
     1
102
RTVSPost2010Prop44ColorIndex
 90
        5
102
RTVSPost2010Prop44ColorRGB
 90
      255
102
RTVSPost2010PropOp44
 70
     1
102
RTVSPost2010Prop45
280
     0
102
RTVSPost2010PropOp45
 70
     1
102
RTVSPost2010Prop46
 90
       50
102
RTVSPost2010PropOp46
 70
     1
102
RTVSPost2010Prop47
 90
       50
102
RTVSPost2010PropOp47
 70
     1
102
RTVSPost2010Prop48
 90
       50
102
RTVSPost2010PropOp48
 70
     1
102
RTVSPost2010Prop49
280
     0
102
RTVSPost2010PropOp49
 70
     1
102
RTVSPost2010Prop50
 90
       50
102
RTVSPost2010PropOp50
 70
     1
102
RTVSPost2010Prop51ColorIndex
 90
      256
102
RTVSPost2010Prop51ColorRGB
 90
-16777216
102
RTVSPost2010PropOp51
 70
     0
102
RTVSPost2010Prop52
140
1.0
102
RTVSPost2010PropOp52
 70
     0
102
RTVSPost2010Prop53
 90
        2
102
RTVSPost2010PropOp53
 70
     1
102
RTVSPost2010Prop54
  1
strokes_ogs.tif
102
RTVSPost2010PropOp54
 70
     1
102
RTVSPost2010Prop55
280
     0
102
RTVSPost2010PropOp55
 70
     1
102
RTVSPost2010Prop56
140
1.0
102
RTVSPost2010PropOp56
 70
     1
102
RTVSPost2010Prop57
140
1.0
102
RTVSPost2010PropOp57
 70
     1
  0
XRECORD
  5
182
102
{ACAD_REACTORS
330
181
102
}
330
181
100
AcDbXrecord
280
     1
102
RTVSPropertyOp0
 70
     0
102
RTVSPropertyOp1
 70
     0
102
RTVSPropertyOp2
 70
     0
102
RTVSPropertyOp3
 70
     0
102
RTVSPropertyOp4
 70
     0
102
RTVSPropertyOp5
 70
     0
102
RTVSPropertyOp6
 70
     0
102
RTVSPropertyOp7
 70
     0
102
RTVSPropertyOp8
 70
     0
102
RTVSPropertyOp9
 70
     0
102
RTVSPropertyOp10
 70
     0
102
RTVSPropertyOp11
 70
     0
102
RTVSPropertyOp12
 70
     0
102
RTVSPropertyOp13
 70
     0
102
RTVSPropertyOp14
 70
     2
102
RTVSPropertyOp15
 70
     0
102
RTVSPropertyOp16
 70
     0
102
RTVSPropertyOp17
 70
     0
102
RTVSPropertyOp18
 70
     0
102
RTVSPropertyOp19
 70
     0
102
RTVSPropertyOp20
 70
     0
102
RTVSPropertyOp21
 70
     0
102
RTVSPropertyOp22
 70
     0
102
RTVSPropertyOp23
 70
     0
102
RTVSPropertyOp24
 70
     0
102
RTVSPropertyOp25
 70
     0
102
RTVSPropertyOp26
 70
     0
102
RTVSPropertyOp27
 70
     0
102
RTVSPropertyOp28
 70
     0
102
RTVSPropertyOp29
 70
     0
102
RTVSPropertyOp30
 70
     0
102
RTVSPropertyOp31
 70
     0
102
RTVSPropertyOp32
 70
     0
102
RTVSPropertyOp33
 70
     0
102
RTVSPropertyOp34
 70
     0
102
RTVSPropertyOp35
 70
     0
102
RTVSPropertyOp36
 70
     0
102
RTVSPropertyOp37
 70
     0
102
RTVSPropertyOp38
 70
     0
102
RTVSPropertyOp39
 70
     0
102
RTVSPropertyOp40
 70
     0
102
RTVSPropertyOp41
 70
     0
102
RTVSPropertyOp42
 70
     0
102
RTVSPropertyOp43
 70
     0
102
RTVSPropertyOp44
 70
     0
102
RTVSPropertyOp45
 70
     0
102
RTVSPropertyOp46
 70
     0
102
RTVSPropertyOp47
 70
     0
102
RTVSPropertyOp48
 70
     0
102
RTVSPropertyOp49
 70
     0
102
RTVSPropertyOp50
 70
     0
102
RTVSPropertyOp51
 70
     0
102
RTVSPropertyOp52
 70
     0
102
RTVSPropertyOp53
 70
     0
102
RTVSPropertyOp54
 70
     0
102
RTVSPropertyOp55
 70
     0
102
RTVSPropertyOp56
 70
     0
102
RTVSPropertyOp57
 70
     0
102
RTVSPost2010Prop28
280
     0
102
RTVSPost2010PropOp28
 70
     0
102
RTVSPost2010Prop29
280
     1
102
RTVSPost2010PropOp29
 70
     0
102
RTVSPost2010Prop30
280
     1
102
RTVSPost2010PropOp30
 70
     0
102
RTVSPost2010Prop31
280
     0
102
RTVSPost2010PropOp31
 70
     0
102
RTVSPost2010Prop32
280
     0
102
RTVSPost2010PropOp32
 70
     0
102
RTVSPost2010Prop33
280
     0
102
RTVSPost2010PropOp33
 70
     0
102
RTVSPost2010Prop34
280
     0
102
RTVSPost2010PropOp34
 70
     0
102
RTVSPost2010Prop35
280
     0
102
RTVSPost2010PropOp35
 70
     0
102
RTVSPost2010Prop36
280
     0
102
RTVSPost2010PropOp36
 70
     0
102
RTVSPost2010Prop37
 90
       50
102
RTVSPost2010PropOp37
 70
     0
102
RTVSPost2010Prop38
140
0.0
102
RTVSPost2010PropOp38
 70
     0
102
RTVSPost2010Prop39
140
1.0
102
RTVSPost2010PropOp39
 70
     0
102
RTVSPost2010Prop40
 90
        0
102
RTVSPost2010PropOp40
 70
     0
102
RTVSPost2010Prop41ColorIndex
 90
       18
102
RTVSPost2010Prop41ColorRGB
 90
        0
102
RTVSPost2010PropOp41
 70
     0
102
RTVSPost2010Prop42
 90
       50
102
RTVSPost2010PropOp42
 70
     0
102
RTVSPost2010Prop43
 90
        3
102
RTVSPost2010PropOp43
 70
     0
102
RTVSPost2010Prop44ColorIndex
 90
        5
102
RTVSPost2010Prop44ColorRGB
 90
      255
102
RTVSPost2010PropOp44
 70
     0
102
RTVSPost2010Prop45
280
     0
102
RTVSPost2010PropOp45
 70
     0
102
RTVSPost2010Prop46
 90
       50
102
RTVSPost2010PropOp46
 70
     0
102
RTVSPost2010Prop47
 90
       50
102
RTVSPost2010PropOp47
 70
     0
102
RTVSPost2010Prop48
 90
       50
102
RTVSPost2010PropOp48
 70
     0
102
RTVSPost2010Prop49
280
     0
102
RTVSPost2010PropOp49
 70
     0
102
RTVSPost2010Prop50
 90
       50
102
RTVSPost2010PropOp50
 70
     0
102
RTVSPost2010Prop51ColorIndex
 90
      256
102
RTVSPost2010Prop51ColorRGB
 90
-16777216
102
RTVSPost2010PropOp51
 70
     0
102
RTVSPost2010Prop52
140
1.0
102
RTVSPost2010PropOp52
 70
     0
102
RTVSPost2010Prop53
 90
        2
102
RTVSPost2010PropOp53
 70
     0
102
RTVSPost2010Prop54
  1
strokes_ogs.tif
102
RTVSPost2010PropOp54
 70
     0
102
RTVSPost2010Prop55
280
     0
102
RTVSPost2010PropOp55
 70
     0
102
RTVSPost2010Prop56
140
1.0
102
RTVSPost2010PropOp56
 70
     0
102
RTVSPost2010Prop57
140
1.0
102
RTVSPost2010PropOp57
 70
     0
  0
XRECORD
  5
17A
102
{ACAD_REACTORS
330
179
102
}
330
179
100
AcDbXrecord
280
     1
102
RTVSPropertyOp0
 70
     1
102
RTVSPropertyOp1
 70
     1
102
RTVSPropertyOp2
 70
     1
102
RTVSPropertyOp3
 70
     1
102
RTVSPropertyOp4
 70
     1
102
RTVSPropertyOp5
 70
     1
102
RTVSPropertyOp6
 70
     1
102
RTVSPropertyOp7
 70
     1
102
RTVSPropertyOp8
 70
     1
102
RTVSPropertyOp9
 70
     1
102
RTVSPropertyOp10
 70
     1
102
RTVSPropertyOp11
 70
     1
102
RTVSPropertyOp12
 70
     1
102
RTVSPropertyOp13
 70
     1
102
RTVSPropertyOp14
 70
     1
102
RTVSPropertyOp15
 70
     1
102
RTVSPropertyOp16
 70
     1
102
RTVSPropertyOp17
 70
     1
102
RTVSPropertyOp18
 70
     1
102
RTVSPropertyOp19
 70
     1
102
RTVSPropertyOp20
 70
     1
102
RTVSPropertyOp21
 70
     1
102
RTVSPropertyOp22
 70
     1
102
RTVSPropertyOp23
 70
     1
102
RTVSPropertyOp24
 70
     1
102
RTVSPropertyOp25
 70
     1
102
RTVSPropertyOp26
 70
     1
102
RTVSPropertyOp27
 70
     1
102
RTVSPropertyOp28
 70
     1
102
RTVSPropertyOp29
 70
     1
102
RTVSPropertyOp30
 70
     1
102
RTVSPropertyOp31
 70
     1
102
RTVSPropertyOp32
 70
     1
102
RTVSPropertyOp33
 70
     1
102
RTVSPropertyOp34
 70
     1
102
RTVSPropertyOp35
 70
     1
102
RTVSPropertyOp36
 70
     1
102
RTVSPropertyOp37
 70
     1
102
RTVSPropertyOp38
 70
     1
102
RTVSPropertyOp39
 70
     1
102
RTVSPropertyOp40
 70
     1
102
RTVSPropertyOp41
 70
     1
102
RTVSPropertyOp42
 70
     1
102
RTVSPropertyOp43
 70
     1
102
RTVSPropertyOp44
 70
     1
102
RTVSPropertyOp45
 70
     1
102
RTVSPropertyOp46
 70
     1
102
RTVSPropertyOp47
 70
     1
102
RTVSPropertyOp48
 70
     1
102
RTVSPropertyOp49
 70
     1
102
RTVSPropertyOp50
 70
     1
102
RTVSPropertyOp51
 70
     0
102
RTVSPropertyOp52
 70
     0
102
RTVSPropertyOp53
 70
     1
102
RTVSPropertyOp54
 70
     1
102
RTVSPropertyOp55
 70
     1
102
RTVSPropertyOp56
 70
     1
102
RTVSPropertyOp57
 70
     1
102
RTVSPost2010Prop28
280
     0
102
RTVSPost2010PropOp28
 70
     1
102
RTVSPost2010Prop29
280
     1
102
RTVSPost2010PropOp29
 70
     1
102
RTVSPost2010Prop30
280
     1
102
RTVSPost2010PropOp30
 70
     1
102
RTVSPost2010Prop31
280
     0
102
RTVSPost2010PropOp31
 70
     1
102
RTVSPost2010Prop32
280
     0
102
RTVSPost2010PropOp32
 70
     1
102
RTVSPost2010Prop33
280
     0
102
RTVSPost2010PropOp33
 70
     1
102
RTVSPost2010Prop34
280
     0
102
RTVSPost2010PropOp34
 70
     1
102
RTVSPost2010Prop35
280
     0
102
RTVSPost2010PropOp35
 70
     1
102
RTVSPost2010Prop36
280
     0
102
RTVSPost2010PropOp36
 70
     1
102
RTVSPost2010Prop37
 90
       50
102
RTVSPost2010PropOp37
 70
     1
102
RTVSPost2010Prop38
140
0.0
102
RTVSPost2010PropOp38
 70
     1
102
RTVSPost2010Prop39
140
1.0
102
RTVSPost2010PropOp39
 70
     1
102
RTVSPost2010Prop40
 90
        0
102
RTVSPost2010PropOp40
 70
     1
102
RTVSPost2010Prop41ColorIndex
 90
       18
102
RTVSPost2010Prop41ColorRGB
 90
        0
102
RTVSPost2010PropOp41
 70
     1
102
RTVSPost2010Prop42
 90
       50
102
RTVSPost2010PropOp42
 70
     1
102
RTVSPost2010Prop43
 90
        3
102
RTVSPost2010PropOp43
 70
     1
102
RTVSPost2010Prop44ColorIndex
 90
        5
102
RTVSPost2010Prop44ColorRGB
 90
      255
102
RTVSPost2010PropOp44
 70
     1
102
RTVSPost2010Prop45
280
     0
102
RTVSPost2010PropOp45
 70
     1
102
RTVSPost2010Prop46
 90
       50
102
RTVSPost2010PropOp46
 70
     1
102
RTVSPost2010Prop47
 90
       50
102
RTVSPost2010PropOp47
 70
     1
102
RTVSPost2010Prop48
 90
       50
102
RTVSPost2010PropOp48
 70
     1
102
RTVSPost2010Prop49
280
     0
102
RTVSPost2010PropOp49
 70
     1
102
RTVSPost2010Prop50
 90
       50
102
RTVSPost2010PropOp50
 70
     1
102
RTVSPost2010Prop51ColorIndex
 90
      256
102
RTVSPost2010Prop51ColorRGB
 90
-16777216
102
RTVSPost2010PropOp51
 70
     0
102
RTVSPost2010Prop52
140
1.0
102
RTVSPost2010PropOp52
 70
     0
102
RTVSPost2010Prop53
 90
        2
102
RTVSPost2010PropOp53
 70
     1
102
RTVSPost2010Prop54
  1
strokes_ogs.tif
102
RTVSPost2010PropOp54
 70
     1
102
RTVSPost2010Prop55
280
     0
102
RTVSPost2010PropOp55
 70
     1
102
RTVSPost2010Prop56
140
1.0
102
RTVSPost2010PropOp56
 70
     1
102
RTVSPost2010Prop57
140
1.0
102
RTVSPost2010PropOp57
 70
     1
  0
XRECORD
  5
15E
102
{ACAD_REACTORS
330
15D
102
}
330
15D
100
AcDbXrecord
280
     1
102
RTVSPropertyOp0
 70
     1
102
RTVSPropertyOp1
 70
     1
102
RTVSPropertyOp2
 70
     1
102
RTVSPropertyOp3
 70
     1
102
RTVSPropertyOp4
 70
     1
102
RTVSPropertyOp5
 70
     1
102
RTVSPropertyOp6
 70
     1
102
RTVSPropertyOp7
 70
     1
102
RTVSPropertyOp8
 70
     1
102
RTVSPropertyOp9
 70
     1
102
RTVSPropertyOp10
 70
     1
102
RTVSPropertyOp11
 70
     1
102
RTVSPropertyOp12
 70
     1
102
RTVSPropertyOp13
 70
     1
102
RTVSPropertyOp14
 70
     1
102
RTVSPropertyOp15
 70
     1
102
RTVSPropertyOp16
 70
     1
102
RTVSPropertyOp17
 70
     1
102
RTVSPropertyOp18
 70
     1
102
RTVSPropertyOp19
 70
     1
102
RTVSPropertyOp20
 70
     1
102
RTVSPropertyOp21
 70
     1
102
RTVSPropertyOp22
 70
     1
102
RTVSPropertyOp23
 70
     1
102
RTVSPropertyOp24
 70
     1
102
RTVSPropertyOp25
 70
     1
102
RTVSPropertyOp26
 70
     1
102
RTVSPropertyOp27
 70
     1
102
RTVSPropertyOp28
 70
     1
102
RTVSPropertyOp29
 70
     1
102
RTVSPropertyOp30
 70
     1
102
RTVSPropertyOp31
 70
     1
102
RTVSPropertyOp32
 70
     1
102
RTVSPropertyOp33
 70
     1
102
RTVSPropertyOp34
 70
     1
102
RTVSPropertyOp35
 70
     1
102
RTVSPropertyOp36
 70
     1
102
RTVSPropertyOp37
 70
     1
102
RTVSPropertyOp38
 70
     1
102
RTVSPropertyOp39
 70
     1
102
RTVSPropertyOp40
 70
     1
102
RTVSPropertyOp41
 70
     1
102
RTVSPropertyOp42
 70
     1
102
RTVSPropertyOp43
 70
     1
102
RTVSPropertyOp44
 70
     1
102
RTVSPropertyOp45
 70
     1
102
RTVSPropertyOp46
 70
     1
102
RTVSPropertyOp47
 70
     1
102
RTVSPropertyOp48
 70
     1
102
RTVSPropertyOp49
 70
     1
102
RTVSPropertyOp50
 70
     1
102
RTVSPropertyOp51
 70
     0
102
RTVSPropertyOp52
 70
     0
102
RTVSPropertyOp53
 70
     1
102
RTVSPropertyOp54
 70
     1
102
RTVSPropertyOp55
 70
     1
102
RTVSPropertyOp56
 70
     1
102
RTVSPropertyOp57
 70
     1
102
RTVSPost2010Prop28
280
     0
102
RTVSPost2010PropOp28
 70
     1
102
RTVSPost2010Prop29
280
     1
102
RTVSPost2010PropOp29
 70
     1
102
RTVSPost2010Prop30
280
     1
102
RTVSPost2010PropOp30
 70
     1
102
RTVSPost2010Prop31
280
     0
102
RTVSPost2010PropOp31
 70
     1
102
RTVSPost2010Prop32
280
     0
102
RTVSPost2010PropOp32
 70
     1
102
RTVSPost2010Prop33
280
     0
102
RTVSPost2010PropOp33
 70
     1
102
RTVSPost2010Prop34
280
     0
102
RTVSPost2010PropOp34
 70
     1
102
RTVSPost2010Prop35
280
     0
102
RTVSPost2010PropOp35
 70
     1
102
RTVSPost2010Prop36
280
     0
102
RTVSPost2010PropOp36
 70
     1
102
RTVSPost2010Prop37
 90
       50
102
RTVSPost2010PropOp37
 70
     1
102
RTVSPost2010Prop38
140
0.0
102
RTVSPost2010PropOp38
 70
     1
102
RTVSPost2010Prop39
140
1.0
102
RTVSPost2010PropOp39
 70
     1
102
RTVSPost2010Prop40
 90
        0
102
RTVSPost2010PropOp40
 70
     1
102
RTVSPost2010Prop41ColorIndex
 90
       18
102
RTVSPost2010Prop41ColorRGB
 90
        0
102
RTVSPost2010PropOp41
 70
     1
102
RTVSPost2010Prop42
 90
       50
102
RTVSPost2010PropOp42
 70
     1
102
RTVSPost2010Prop43
 90
        3
102
RTVSPost2010PropOp43
 70
     1
102
RTVSPost2010Prop44ColorIndex
 90
        5
102
RTVSPost2010Prop44ColorRGB
 90
      255
102
RTVSPost2010PropOp44
 70
     1
102
RTVSPost2010Prop45
280
     0
102
RTVSPost2010PropOp45
 70
     1
102
RTVSPost2010Prop46
 90
       50
102
RTVSPost2010PropOp46
 70
     1
102
RTVSPost2010Prop47
 90
       50
102
RTVSPost2010PropOp47
 70
     1
102
RTVSPost2010Prop48
 90
       50
102
RTVSPost2010PropOp48
 70
     1
102
RTVSPost2010Prop49
280
     0
102
RTVSPost2010PropOp49
 70
     1
102
RTVSPost2010Prop50
 90
       50
102
RTVSPost2010PropOp50
 70
     1
102
RTVSPost2010Prop51ColorIndex
 90
      256
102
RTVSPost2010Prop51ColorRGB
 90
-16777216
102
RTVSPost2010PropOp51
 70
     0
102
RTVSPost2010Prop52
140
1.0
102
RTVSPost2010PropOp52
 70
     0
102
RTVSPost2010Prop53
 90
        2
102
RTVSPost2010PropOp53
 70
     1
102
RTVSPost2010Prop54
  1
strokes_ogs.tif
102
RTVSPost2010PropOp54
 70
     1
102
RTVSPost2010Prop55
280
     0
102
RTVSPost2010PropOp55
 70
     1
102
RTVSPost2010Prop56
140
1.0
102
RTVSPost2010PropOp56
 70
     1
102
RTVSPost2010Prop57
140
1.0
102
RTVSPost2010PropOp57
 70
     1
  0
XRECORD
  5
160
102
{ACAD_REACTORS
330
15F
102
}
330
15F
100
AcDbXrecord
280
     1
102
RTVSPropertyOp0
 70
     1
102
RTVSPropertyOp1
 70
     1
102
RTVSPropertyOp2
 70
     1
102
RTVSPropertyOp3
 70
     1
102
RTVSPropertyOp4
 70
     1
102
RTVSPropertyOp5
 70
     1
102
RTVSPropertyOp6
 70
     1
102
RTVSPropertyOp7
 70
     1
102
RTVSPropertyOp8
 70
     1
102
RTVSPropertyOp9
 70
     1
102
RTVSPropertyOp10
 70
     1
102
RTVSPropertyOp11
 70
     1
102
RTVSPropertyOp12
 70
     1
102
RTVSPropertyOp13
 70
     1
102
RTVSPropertyOp14
 70
     1
102
RTVSPropertyOp15
 70
     1
102
RTVSPropertyOp16
 70
     1
102
RTVSPropertyOp17
 70
     1
102
RTVSPropertyOp18
 70
     1
102
RTVSPropertyOp19
 70
     1
102
RTVSPropertyOp20
 70
     1
102
RTVSPropertyOp21
 70
     1
102
RTVSPropertyOp22
 70
     1
102
RTVSPropertyOp23
 70
     1
102
RTVSPropertyOp24
 70
     1
102
RTVSPropertyOp25
 70
     1
102
RTVSPropertyOp26
 70
     1
102
RTVSPropertyOp27
 70
     1
102
RTVSPropertyOp28
 70
     1
102
RTVSPropertyOp29
 70
     1
102
RTVSPropertyOp30
 70
     1
102
RTVSPropertyOp31
 70
     1
102
RTVSPropertyOp32
 70
     1
102
RTVSPropertyOp33
 70
     1
102
RTVSPropertyOp34
 70
     1
102
RTVSPropertyOp35
 70
     1
102
RTVSPropertyOp36
 70
     1
102
RTVSPropertyOp37
 70
     1
102
RTVSPropertyOp38
 70
     1
102
RTVSPropertyOp39
 70
     1
102
RTVSPropertyOp40
 70
     1
102
RTVSPropertyOp41
 70
     1
102
RTVSPropertyOp42
 70
     1
102
RTVSPropertyOp43
 70
     1
102
RTVSPropertyOp44
 70
     1
102
RTVSPropertyOp45
 70
     1
102
RTVSPropertyOp46
 70
     1
102
RTVSPropertyOp47
 70
     1
102
RTVSPropertyOp48
 70
     1
102
RTVSPropertyOp49
 70
     1
102
RTVSPropertyOp50
 70
     1
102
RTVSPropertyOp51
 70
     0
102
RTVSPropertyOp52
 70
     0
102
RTVSPropertyOp53
 70
     1
102
RTVSPropertyOp54
 70
     1
102
RTVSPropertyOp55
 70
     1
102
RTVSPropertyOp56
 70
     1
102
RTVSPropertyOp57
 70
     1
102
RTVSPost2010Prop28
280
     0
102
RTVSPost2010PropOp28
 70
     1
102
RTVSPost2010Prop29
280
     1
102
RTVSPost2010PropOp29
 70
     1
102
RTVSPost2010Prop30
280
     1
102
RTVSPost2010PropOp30
 70
     1
102
RTVSPost2010Prop31
280
     0
102
RTVSPost2010PropOp31
 70
     1
102
RTVSPost2010Prop32
280
     0
102
RTVSPost2010PropOp32
 70
     1
102
RTVSPost2010Prop33
280
     0
102
RTVSPost2010PropOp33
 70
     1
102
RTVSPost2010Prop34
280
     0
102
RTVSPost2010PropOp34
 70
     1
102
RTVSPost2010Prop35
280
     0
102
RTVSPost2010PropOp35
 70
     1
102
RTVSPost2010Prop36
280
     0
102
RTVSPost2010PropOp36
 70
     1
102
RTVSPost2010Prop37
 90
       50
102
RTVSPost2010PropOp37
 70
     1
102
RTVSPost2010Prop38
140
0.0
102
RTVSPost2010PropOp38
 70
     1
102
RTVSPost2010Prop39
140
1.0
102
RTVSPost2010PropOp39
 70
     1
102
RTVSPost2010Prop40
 90
        0
102
RTVSPost2010PropOp40
 70
     1
102
RTVSPost2010Prop41ColorIndex
 90
       18
102
RTVSPost2010Prop41ColorRGB
 90
        0
102
RTVSPost2010PropOp41
 70
     1
102
RTVSPost2010Prop42
 90
       50
102
RTVSPost2010PropOp42
 70
     1
102
RTVSPost2010Prop43
 90
        3
102
RTVSPost2010PropOp43
 70
     1
102
RTVSPost2010Prop44ColorIndex
 90
        5
102
RTVSPost2010Prop44ColorRGB
 90
      255
102
RTVSPost2010PropOp44
 70
     1
102
RTVSPost2010Prop45
280
     0
102
RTVSPost2010PropOp45
 70
     1
102
RTVSPost2010Prop46
 90
       50
102
RTVSPost2010PropOp46
 70
     1
102
RTVSPost2010Prop47
 90
       50
102
RTVSPost2010PropOp47
 70
     1
102
RTVSPost2010Prop48
 90
       50
102
RTVSPost2010PropOp48
 70
     1
102
RTVSPost2010Prop49
280
     0
102
RTVSPost2010PropOp49
 70
     1
102
RTVSPost2010Prop50
 90
       50
102
RTVSPost2010PropOp50
 70
     1
102
RTVSPost2010Prop51ColorIndex
 90
      256
102
RTVSPost2010Prop51ColorRGB
 90
-16777216
102
RTVSPost2010PropOp51
 70
     0
102
RTVSPost2010Prop52
140
1.0
102
RTVSPost2010PropOp52
 70
     0
102
RTVSPost2010Prop53
 90
        2
102
RTVSPost2010PropOp53
 70
     1
102
RTVSPost2010Prop54
  1
strokes_ogs.tif
102
RTVSPost2010PropOp54
 70
     1
102
RTVSPost2010Prop55
280
     0
102
RTVSPost2010PropOp55
 70
     1
102
RTVSPost2010Prop56
140
1.0
102
RTVSPost2010PropOp56
 70
     1
102
RTVSPost2010Prop57
140
1.0
102
RTVSPost2010PropOp57
 70
     1
  0
XRECORD
  5
162
102
{ACAD_REACTORS
330
161
102
}
330
161
100
AcDbXrecord
280
     1
102
RTVSPropertyOp0
 70
     1
102
RTVSPropertyOp1
 70
     1
102
RTVSPropertyOp2
 70
     1
102
RTVSPropertyOp3
 70
     1
102
RTVSPropertyOp4
 70
     1
102
RTVSPropertyOp5
 70
     1
102
RTVSPropertyOp6
 70
     1
102
RTVSPropertyOp7
 70
     1
102
RTVSPropertyOp8
 70
     1
102
RTVSPropertyOp9
 70
     1
102
RTVSPropertyOp10
 70
     1
102
RTVSPropertyOp11
 70
     1
102
RTVSPropertyOp12
 70
     1
102
RTVSPropertyOp13
 70
     1
102
RTVSPropertyOp14
 70
     1
102
RTVSPropertyOp15
 70
     1
102
RTVSPropertyOp16
 70
     1
102
RTVSPropertyOp17
 70
     1
102
RTVSPropertyOp18
 70
     1
102
RTVSPropertyOp19
 70
     1
102
RTVSPropertyOp20
 70
     1
102
RTVSPropertyOp21
 70
     1
102
RTVSPropertyOp22
 70
     1
102
RTVSPropertyOp23
 70
     1
102
RTVSPropertyOp24
 70
     1
102
RTVSPropertyOp25
 70
     1
102
RTVSPropertyOp26
 70
     1
102
RTVSPropertyOp27
 70
     1
102
RTVSPropertyOp28
 70
     1
102
RTVSPropertyOp29
 70
     1
102
RTVSPropertyOp30
 70
     1
102
RTVSPropertyOp31
 70
     1
102
RTVSPropertyOp32
 70
     1
102
RTVSPropertyOp33
 70
     1
102
RTVSPropertyOp34
 70
     1
102
RTVSPropertyOp35
 70
     1
102
RTVSPropertyOp36
 70
     1
102
RTVSPropertyOp37
 70
     1
102
RTVSPropertyOp38
 70
     1
102
RTVSPropertyOp39
 70
     1
102
RTVSPropertyOp40
 70
     1
102
RTVSPropertyOp41
 70
     1
102
RTVSPropertyOp42
 70
     1
102
RTVSPropertyOp43
 70
     1
102
RTVSPropertyOp44
 70
     1
102
RTVSPropertyOp45
 70
     1
102
RTVSPropertyOp46
 70
     1
102
RTVSPropertyOp47
 70
     1
102
RTVSPropertyOp48
 70
     1
102
RTVSPropertyOp49
 70
     1
102
RTVSPropertyOp50
 70
     1
102
RTVSPropertyOp51
 70
     0
102
RTVSPropertyOp52
 70
     0
102
RTVSPropertyOp53
 70
     1
102
RTVSPropertyOp54
 70
     1
102
RTVSPropertyOp55
 70
     1
102
RTVSPropertyOp56
 70
     1
102
RTVSPropertyOp57
 70
     1
102
RTVSPost2010Prop28
280
     0
102
RTVSPost2010PropOp28
 70
     1
102
RTVSPost2010Prop29
280
     1
102
RTVSPost2010PropOp29
 70
     1
102
RTVSPost2010Prop30
280
     1
102
RTVSPost2010PropOp30
 70
     1
102
RTVSPost2010Prop31
280
     0
102
RTVSPost2010PropOp31
 70
     1
102
RTVSPost2010Prop32
280
     0
102
RTVSPost2010PropOp32
 70
     1
102
RTVSPost2010Prop33
280
     0
102
RTVSPost2010PropOp33
 70
     1
102
RTVSPost2010Prop34
280
     0
102
RTVSPost2010PropOp34
 70
     1
102
RTVSPost2010Prop35
280
     0
102
RTVSPost2010PropOp35
 70
     1
102
RTVSPost2010Prop36
280
     0
102
RTVSPost2010PropOp36
 70
     1
102
RTVSPost2010Prop37
 90
       50
102
RTVSPost2010PropOp37
 70
     1
102
RTVSPost2010Prop38
140
0.0
102
RTVSPost2010PropOp38
 70
     1
102
RTVSPost2010Prop39
140
1.0
102
RTVSPost2010PropOp39
 70
     1
102
RTVSPost2010Prop40
 90
        0
102
RTVSPost2010PropOp40
 70
     1
102
RTVSPost2010Prop41ColorIndex
 90
       18
102
RTVSPost2010Prop41ColorRGB
 90
        0
102
RTVSPost2010PropOp41
 70
     1
102
RTVSPost2010Prop42
 90
       50
102
RTVSPost2010PropOp42
 70
     1
102
RTVSPost2010Prop43
 90
        3
102
RTVSPost2010PropOp43
 70
     1
102
RTVSPost2010Prop44ColorIndex
 90
        5
102
RTVSPost2010Prop44ColorRGB
 90
      255
102
RTVSPost2010PropOp44
 70
     1
102
RTVSPost2010Prop45
280
     0
102
RTVSPost2010PropOp45
 70
     1
102
RTVSPost2010Prop46
 90
       50
102
RTVSPost2010PropOp46
 70
     1
102
RTVSPost2010Prop47
 90
       50
102
RTVSPost2010PropOp47
 70
     1
102
RTVSPost2010Prop48
 90
       50
102
RTVSPost2010PropOp48
 70
     1
102
RTVSPost2010Prop49
280
     0
102
RTVSPost2010PropOp49
 70
     1
102
RTVSPost2010Prop50
 90
       50
102
RTVSPost2010PropOp50
 70
     1
102
RTVSPost2010Prop51ColorIndex
 90
      256
102
RTVSPost2010Prop51ColorRGB
 90
-16777216
102
RTVSPost2010PropOp51
 70
     0
102
RTVSPost2010Prop52
140
1.0
102
RTVSPost2010PropOp52
 70
     0
102
RTVSPost2010Prop53
 90
        2
102
RTVSPost2010PropOp53
 70
     1
102
RTVSPost2010Prop54
  1
strokes_ogs.tif
102
RTVSPost2010PropOp54
 70
     1
102
RTVSPost2010Prop55
280
     0
102
RTVSPost2010PropOp55
 70
     1
102
RTVSPost2010Prop56
140
1.0
102
RTVSPost2010PropOp56
 70
     1
102
RTVSPost2010Prop57
140
1.0
102
RTVSPost2010PropOp57
 70
     1
  0
XRECORD
  5
164
102
{ACAD_REACTORS
330
163
102
}
330
163
100
AcDbXrecord
280
     1
102
RTVSPropertyOp0
 70
     1
102
RTVSPropertyOp1
 70
     1
102
RTVSPropertyOp2
 70
     1
102
RTVSPropertyOp3
 70
     1
102
RTVSPropertyOp4
 70
     1
102
RTVSPropertyOp5
 70
     1
102
RTVSPropertyOp6
 70
     1
102
RTVSPropertyOp7
 70
     1
102
RTVSPropertyOp8
 70
     1
102
RTVSPropertyOp9
 70
     1
102
RTVSPropertyOp10
 70
     1
102
RTVSPropertyOp11
 70
     1
102
RTVSPropertyOp12
 70
     1
102
RTVSPropertyOp13
 70
     1
102
RTVSPropertyOp14
 70
     1
102
RTVSPropertyOp15
 70
     1
102
RTVSPropertyOp16
 70
     1
102
RTVSPropertyOp17
 70
     1
102
RTVSPropertyOp18
 70
     1
102
RTVSPropertyOp19
 70
     1
102
RTVSPropertyOp20
 70
     1
102
RTVSPropertyOp21
 70
     1
102
RTVSPropertyOp22
 70
     1
102
RTVSPropertyOp23
 70
     1
102
RTVSPropertyOp24
 70
     1
102
RTVSPropertyOp25
 70
     1
102
RTVSPropertyOp26
 70
     1
102
RTVSPropertyOp27
 70
     1
102
RTVSPropertyOp28
 70
     1
102
RTVSPropertyOp29
 70
     1
102
RTVSPropertyOp30
 70
     1
102
RTVSPropertyOp31
 70
     1
102
RTVSPropertyOp32
 70
     1
102
RTVSPropertyOp33
 70
     1
102
RTVSPropertyOp34
 70
     1
102
RTVSPropertyOp35
 70
     1
102
RTVSPropertyOp36
 70
     1
102
RTVSPropertyOp37
 70
     1
102
RTVSPropertyOp38
 70
     1
102
RTVSPropertyOp39
 70
     1
102
RTVSPropertyOp40
 70
     1
102
RTVSPropertyOp41
 70
     1
102
RTVSPropertyOp42
 70
     1
102
RTVSPropertyOp43
 70
     1
102
RTVSPropertyOp44
 70
     1
102
RTVSPropertyOp45
 70
     1
102
RTVSPropertyOp46
 70
     1
102
RTVSPropertyOp47
 70
     1
102
RTVSPropertyOp48
 70
     1
102
RTVSPropertyOp49
 70
     1
102
RTVSPropertyOp50
 70
     1
102
RTVSPropertyOp51
 70
     0
102
RTVSPropertyOp52
 70
     0
102
RTVSPropertyOp53
 70
     1
102
RTVSPropertyOp54
 70
     1
102
RTVSPropertyOp55
 70
     1
102
RTVSPropertyOp56
 70
     1
102
RTVSPropertyOp57
 70
     1
102
RTVSPost2010Prop28
280
     0
102
RTVSPost2010PropOp28
 70
     1
102
RTVSPost2010Prop29
280
     1
102
RTVSPost2010PropOp29
 70
     1
102
RTVSPost2010Prop30
280
     1
102
RTVSPost2010PropOp30
 70
     1
102
RTVSPost2010Prop31
280
     0
102
RTVSPost2010PropOp31
 70
     1
102
RTVSPost2010Prop32
280
     0
102
RTVSPost2010PropOp32
 70
     1
102
RTVSPost2010Prop33
280
     0
102
RTVSPost2010PropOp33
 70
     1
102
RTVSPost2010Prop34
280
     0
102
RTVSPost2010PropOp34
 70
     1
102
RTVSPost2010Prop35
280
     0
102
RTVSPost2010PropOp35
 70
     1
102
RTVSPost2010Prop36
280
     0
102
RTVSPost2010PropOp36
 70
     1
102
RTVSPost2010Prop37
 90
       50
102
RTVSPost2010PropOp37
 70
     1
102
RTVSPost2010Prop38
140
0.0
102
RTVSPost2010PropOp38
 70
     1
102
RTVSPost2010Prop39
140
1.0
102
RTVSPost2010PropOp39
 70
     1
102
RTVSPost2010Prop40
 90
        0
102
RTVSPost2010PropOp40
 70
     1
102
RTVSPost2010Prop41ColorIndex
 90
       18
102
RTVSPost2010Prop41ColorRGB
 90
        0
102
RTVSPost2010PropOp41
 70
     1
102
RTVSPost2010Prop42
 90
       50
102
RTVSPost2010PropOp42
 70
     1
102
RTVSPost2010Prop43
 90
        3
102
RTVSPost2010PropOp43
 70
     1
102
RTVSPost2010Prop44ColorIndex
 90
        5
102
RTVSPost2010Prop44ColorRGB
 90
      255
102
RTVSPost2010PropOp44
 70
     1
102
RTVSPost2010Prop45
280
     0
102
RTVSPost2010PropOp45
 70
     1
102
RTVSPost2010Prop46
 90
       50
102
RTVSPost2010PropOp46
 70
     1
102
RTVSPost2010Prop47
 90
       50
102
RTVSPost2010PropOp47
 70
     1
102
RTVSPost2010Prop48
 90
       50
102
RTVSPost2010PropOp48
 70
     1
102
RTVSPost2010Prop49
280
     0
102
RTVSPost2010PropOp49
 70
     1
102
RTVSPost2010Prop50
 90
       50
102
RTVSPost2010PropOp50
 70
     1
102
RTVSPost2010Prop51ColorIndex
 90
      256
102
RTVSPost2010Prop51ColorRGB
 90
-16777216
102
RTVSPost2010PropOp51
 70
     0
102
RTVSPost2010Prop52
140
1.0
102
RTVSPost2010PropOp52
 70
     0
102
RTVSPost2010Prop53
 90
        2
102
RTVSPost2010PropOp53
 70
     1
102
RTVSPost2010Prop54
  1
strokes_ogs.tif
102
RTVSPost2010PropOp54
 70
     1
102
RTVSPost2010Prop55
280
     0
102
RTVSPost2010PropOp55
 70
     1
102
RTVSPost2010Prop56
140
1.0
102
RTVSPost2010PropOp56
 70
     1
102
RTVSPost2010Prop57
140
1.0
102
RTVSPost2010PropOp57
 70
     1
  0
XRECORD
  5
16A
102
{ACAD_REACTORS
330
169
102
}
330
169
100
AcDbXrecord
280
     1
102
RTVSPropertyOp0
 70
     1
102
RTVSPropertyOp1
 70
     1
102
RTVSPropertyOp2
 70
     1
102
RTVSPropertyOp3
 70
     1
102
RTVSPropertyOp4
 70
     1
102
RTVSPropertyOp5
 70
     1
102
RTVSPropertyOp6
 70
     1
102
RTVSPropertyOp7
 70
     1
102
RTVSPropertyOp8
 70
     1
102
RTVSPropertyOp9
 70
     1
102
RTVSPropertyOp10
 70
     1
102
RTVSPropertyOp11
 70
     1
102
RTVSPropertyOp12
 70
     1
102
RTVSPropertyOp13
 70
     1
102
RTVSPropertyOp14
 70
     1
102
RTVSPropertyOp15
 70
     1
102
RTVSPropertyOp16
 70
     1
102
RTVSPropertyOp17
 70
     1
102
RTVSPropertyOp18
 70
     1
102
RTVSPropertyOp19
 70
     1
102
RTVSPropertyOp20
 70
     1
102
RTVSPropertyOp21
 70
     1
102
RTVSPropertyOp22
 70
     1
102
RTVSPropertyOp23
 70
     1
102
RTVSPropertyOp24
 70
     1
102
RTVSPropertyOp25
 70
     1
102
RTVSPropertyOp26
 70
     1
102
RTVSPropertyOp27
 70
     1
102
RTVSPropertyOp28
 70
     1
102
RTVSPropertyOp29
 70
     1
102
RTVSPropertyOp30
 70
     1
102
RTVSPropertyOp31
 70
     1
102
RTVSPropertyOp32
 70
     1
102
RTVSPropertyOp33
 70
     1
102
RTVSPropertyOp34
 70
     1
102
RTVSPropertyOp35
 70
     1
102
RTVSPropertyOp36
 70
     1
102
RTVSPropertyOp37
 70
     1
102
RTVSPropertyOp38
 70
     1
102
RTVSPropertyOp39
 70
     1
102
RTVSPropertyOp40
 70
     1
102
RTVSPropertyOp41
 70
     1
102
RTVSPropertyOp42
 70
     1
102
RTVSPropertyOp43
 70
     1
102
RTVSPropertyOp44
 70
     1
102
RTVSPropertyOp45
 70
     1
102
RTVSPropertyOp46
 70
     1
102
RTVSPropertyOp47
 70
     1
102
RTVSPropertyOp48
 70
     1
102
RTVSPropertyOp49
 70
     1
102
RTVSPropertyOp50
 70
     1
102
RTVSPropertyOp51
 70
     0
102
RTVSPropertyOp52
 70
     0
102
RTVSPropertyOp53
 70
     1
102
RTVSPropertyOp54
 70
     1
102
RTVSPropertyOp55
 70
     1
102
RTVSPropertyOp56
 70
     1
102
RTVSPropertyOp57
 70
     1
102
RTVSPost2010Prop28
280
     0
102
RTVSPost2010PropOp28
 70
     1
102
RTVSPost2010Prop29
280
     1
102
RTVSPost2010PropOp29
 70
     1
102
RTVSPost2010Prop30
280
     1
102
RTVSPost2010PropOp30
 70
     1
102
RTVSPost2010Prop31
280
     0
102
RTVSPost2010PropOp31
 70
     1
102
RTVSPost2010Prop32
280
     0
102
RTVSPost2010PropOp32
 70
     1
102
RTVSPost2010Prop33
280
     0
102
RTVSPost2010PropOp33
 70
     1
102
RTVSPost2010Prop34
280
     0
102
RTVSPost2010PropOp34
 70
     1
102
RTVSPost2010Prop35
280
     0
102
RTVSPost2010PropOp35
 70
     1
102
RTVSPost2010Prop36
280
     0
102
RTVSPost2010PropOp36
 70
     1
102
RTVSPost2010Prop37
 90
       50
102
RTVSPost2010PropOp37
 70
     1
102
RTVSPost2010Prop38
140
0.0
102
RTVSPost2010PropOp38
 70
     1
102
RTVSPost2010Prop39
140
1.0
102
RTVSPost2010PropOp39
 70
     1
102
RTVSPost2010Prop40
 90
        0
102
RTVSPost2010PropOp40
 70
     1
102
RTVSPost2010Prop41ColorIndex
 90
       18
102
RTVSPost2010Prop41ColorRGB
 90
        0
102
RTVSPost2010PropOp41
 70
     1
102
RTVSPost2010Prop42
 90
       50
102
RTVSPost2010PropOp42
 70
     1
102
RTVSPost2010Prop43
 90
        3
102
RTVSPost2010PropOp43
 70
     1
102
RTVSPost2010Prop44ColorIndex
 90
        5
102
RTVSPost2010Prop44ColorRGB
 90
      255
102
RTVSPost2010PropOp44
 70
     1
102
RTVSPost2010Prop45
280
     0
102
RTVSPost2010PropOp45
 70
     1
102
RTVSPost2010Prop46
 90
       50
102
RTVSPost2010PropOp46
 70
     1
102
RTVSPost2010Prop47
 90
       50
102
RTVSPost2010PropOp47
 70
     1
102
RTVSPost2010Prop48
 90
       50
102
RTVSPost2010PropOp48
 70
     1
102
RTVSPost2010Prop49
280
     0
102
RTVSPost2010PropOp49
 70
     1
102
RTVSPost2010Prop50
 90
       50
102
RTVSPost2010PropOp50
 70
     1
102
RTVSPost2010Prop51ColorIndex
 90
      256
102
RTVSPost2010Prop51ColorRGB
 90
-16777216
102
RTVSPost2010PropOp51
 70
     0
102
RTVSPost2010Prop52
140
1.0
102
RTVSPost2010PropOp52
 70
     0
102
RTVSPost2010Prop53
 90
        2
102
RTVSPost2010PropOp53
 70
     1
102
RTVSPost2010Prop54
  1
strokes_ogs.tif
102
RTVSPost2010PropOp54
 70
     1
102
RTVSPost2010Prop55
280
     0
102
RTVSPost2010PropOp55
 70
     1
102
RTVSPost2010Prop56
140
1.0
102
RTVSPost2010PropOp56
 70
     1
102
RTVSPost2010Prop57
140
1.0
102
RTVSPost2010PropOp57
 70
     1
  0
XRECORD
  5
17E
102
{ACAD_REACTORS
330
17D
102
}
330
17D
100
AcDbXrecord
280
     1
102
RTVSPropertyOp0
 70
     0
102
RTVSPropertyOp1
 70
     0
102
RTVSPropertyOp2
 70
     0
102
RTVSPropertyOp3
 70
     0
102
RTVSPropertyOp4
 70
     0
102
RTVSPropertyOp5
 70
     0
102
RTVSPropertyOp6
 70
     0
102
RTVSPropertyOp7
 70
     0
102
RTVSPropertyOp8
 70
     0
102
RTVSPropertyOp9
 70
     0
102
RTVSPropertyOp10
 70
     0
102
RTVSPropertyOp11
 70
     0
102
RTVSPropertyOp12
 70
     0
102
RTVSPropertyOp13
 70
     0
102
RTVSPropertyOp14
 70
     2
102
RTVSPropertyOp15
 70
     0
102
RTVSPropertyOp16
 70
     0
102
RTVSPropertyOp17
 70
     0
102
RTVSPropertyOp18
 70
     0
102
RTVSPropertyOp19
 70
     0
102
RTVSPropertyOp20
 70
     0
102
RTVSPropertyOp21
 70
     0
102
RTVSPropertyOp22
 70
     0
102
RTVSPropertyOp23
 70
     0
102
RTVSPropertyOp24
 70
     0
102
RTVSPropertyOp25
 70
     0
102
RTVSPropertyOp26
 70
     0
102
RTVSPropertyOp27
 70
     0
102
RTVSPropertyOp28
 70
     0
102
RTVSPropertyOp29
 70
     0
102
RTVSPropertyOp30
 70
     0
102
RTVSPropertyOp31
 70
     0
102
RTVSPropertyOp32
 70
     0
102
RTVSPropertyOp33
 70
     0
102
RTVSPropertyOp34
 70
     0
102
RTVSPropertyOp35
 70
     0
102
RTVSPropertyOp36
 70
     0
102
RTVSPropertyOp37
 70
     0
102
RTVSPropertyOp38
 70
     0
102
RTVSPropertyOp39
 70
     0
102
RTVSPropertyOp40
 70
     0
102
RTVSPropertyOp41
 70
     0
102
RTVSPropertyOp42
 70
     0
102
RTVSPropertyOp43
 70
     0
102
RTVSPropertyOp44
 70
     0
102
RTVSPropertyOp45
 70
     0
102
RTVSPropertyOp46
 70
     0
102
RTVSPropertyOp47
 70
     0
102
RTVSPropertyOp48
 70
     0
102
RTVSPropertyOp49
 70
     0
102
RTVSPropertyOp50
 70
     0
102
RTVSPropertyOp51
 70
     0
102
RTVSPropertyOp52
 70
     0
102
RTVSPropertyOp53
 70
     0
102
RTVSPropertyOp54
 70
     0
102
RTVSPropertyOp55
 70
     0
102
RTVSPropertyOp56
 70
     0
102
RTVSPropertyOp57
 70
     0
102
RTVSPost2010Prop28
280
     0
102
RTVSPost2010PropOp28
 70
     0
102
RTVSPost2010Prop29
280
     1
102
RTVSPost2010PropOp29
 70
     0
102
RTVSPost2010Prop30
280
     1
102
RTVSPost2010PropOp30
 70
     0
102
RTVSPost2010Prop31
280
     0
102
RTVSPost2010PropOp31
 70
     0
102
RTVSPost2010Prop32
280
     0
102
RTVSPost2010PropOp32
 70
     0
102
RTVSPost2010Prop33
280
     0
102
RTVSPost2010PropOp33
 70
     0
102
RTVSPost2010Prop34
280
     0
102
RTVSPost2010PropOp34
 70
     0
102
RTVSPost2010Prop35
280
     0
102
RTVSPost2010PropOp35
 70
     0
102
RTVSPost2010Prop36
280
     0
102
RTVSPost2010PropOp36
 70
     0
102
RTVSPost2010Prop37
 90
       50
102
RTVSPost2010PropOp37
 70
     0
102
RTVSPost2010Prop38
140
0.0
102
RTVSPost2010PropOp38
 70
     0
102
RTVSPost2010Prop39
140
1.0
102
RTVSPost2010PropOp39
 70
     0
102
RTVSPost2010Prop40
 90
        0
102
RTVSPost2010PropOp40
 70
     0
102
RTVSPost2010Prop41ColorIndex
 90
       18
102
RTVSPost2010Prop41ColorRGB
 90
        0
102
RTVSPost2010PropOp41
 70
     0
102
RTVSPost2010Prop42
 90
       50
102
RTVSPost2010PropOp42
 70
     0
102
RTVSPost2010Prop43
 90
        3
102
RTVSPost2010PropOp43
 70
     0
102
RTVSPost2010Prop44ColorIndex
 90
        5
102
RTVSPost2010Prop44ColorRGB
 90
      255
102
RTVSPost2010PropOp44
 70
     0
102
RTVSPost2010Prop45
280
     0
102
RTVSPost2010PropOp45
 70
     0
102
RTVSPost2010Prop46
 90
       50
102
RTVSPost2010PropOp46
 70
     0
102
RTVSPost2010Prop47
 90
       50
102
RTVSPost2010PropOp47
 70
     0
102
RTVSPost2010Prop48
 90
       50
102
RTVSPost2010PropOp48
 70
     0
102
RTVSPost2010Prop49
280
     0
102
RTVSPost2010PropOp49
 70
     0
102
RTVSPost2010Prop50
 90
       50
102
RTVSPost2010PropOp50
 70
     0
102
RTVSPost2010Prop51ColorIndex
 90
      256
102
RTVSPost2010Prop51ColorRGB
 90
-16777216
102
RTVSPost2010PropOp51
 70
     0
102
RTVSPost2010Prop52
140
1.0
102
RTVSPost2010PropOp52
 70
     0
102
RTVSPost2010Prop53
 90
        2
102
RTVSPost2010PropOp53
 70
     0
102
RTVSPost2010Prop54
  1
strokes_ogs.tif
102
RTVSPost2010PropOp54
 70
     0
102
RTVSPost2010Prop55
280
     0
102
RTVSPost2010PropOp55
 70
     0
102
RTVSPost2010Prop56
140
1.0
102
RTVSPost2010PropOp56
 70
     0
102
RTVSPost2010Prop57
140
1.0
102
RTVSPost2010PropOp57
 70
     0
  0
XRECORD
  5
178
102
{ACAD_REACTORS
330
177
102
}
330
177
100
AcDbXrecord
280
     1
102
RTVSPropertyOp0
 70
     1
102
RTVSPropertyOp1
 70
     1
102
RTVSPropertyOp2
 70
     1
102
RTVSPropertyOp3
 70
     1
102
RTVSPropertyOp4
 70
     1
102
RTVSPropertyOp5
 70
     1
102
RTVSPropertyOp6
 70
     1
102
RTVSPropertyOp7
 70
     1
102
RTVSPropertyOp8
 70
     1
102
RTVSPropertyOp9
 70
     1
102
RTVSPropertyOp10
 70
     1
102
RTVSPropertyOp11
 70
     1
102
RTVSPropertyOp12
 70
     1
102
RTVSPropertyOp13
 70
     1
102
RTVSPropertyOp14
 70
     1
102
RTVSPropertyOp15
 70
     1
102
RTVSPropertyOp16
 70
     1
102
RTVSPropertyOp17
 70
     1
102
RTVSPropertyOp18
 70
     1
102
RTVSPropertyOp19
 70
     1
102
RTVSPropertyOp20
 70
     1
102
RTVSPropertyOp21
 70
     1
102
RTVSPropertyOp22
 70
     1
102
RTVSPropertyOp23
 70
     1
102
RTVSPropertyOp24
 70
     1
102
RTVSPropertyOp25
 70
     1
102
RTVSPropertyOp26
 70
     1
102
RTVSPropertyOp27
 70
     1
102
RTVSPropertyOp28
 70
     1
102
RTVSPropertyOp29
 70
     1
102
RTVSPropertyOp30
 70
     1
102
RTVSPropertyOp31
 70
     1
102
RTVSPropertyOp32
 70
     1
102
RTVSPropertyOp33
 70
     1
102
RTVSPropertyOp34
 70
     1
102
RTVSPropertyOp35
 70
     1
102
RTVSPropertyOp36
 70
     1
102
RTVSPropertyOp37
 70
     1
102
RTVSPropertyOp38
 70
     1
102
RTVSPropertyOp39
 70
     1
102
RTVSPropertyOp40
 70
     1
102
RTVSPropertyOp41
 70
     1
102
RTVSPropertyOp42
 70
     1
102
RTVSPropertyOp43
 70
     1
102
RTVSPropertyOp44
 70
     1
102
RTVSPropertyOp45
 70
     1
102
RTVSPropertyOp46
 70
     1
102
RTVSPropertyOp47
 70
     1
102
RTVSPropertyOp48
 70
     1
102
RTVSPropertyOp49
 70
     1
102
RTVSPropertyOp50
 70
     1
102
RTVSPropertyOp51
 70
     0
102
RTVSPropertyOp52
 70
     0
102
RTVSPropertyOp53
 70
     1
102
RTVSPropertyOp54
 70
     1
102
RTVSPropertyOp55
 70
     1
102
RTVSPropertyOp56
 70
     1
102
RTVSPropertyOp57
 70
     1
102
RTVSPost2010Prop28
280
     0
102
RTVSPost2010PropOp28
 70
     1
102
RTVSPost2010Prop29
280
     1
102
RTVSPost2010PropOp29
 70
     1
102
RTVSPost2010Prop30
280
     1
102
RTVSPost2010PropOp30
 70
     1
102
RTVSPost2010Prop31
280
     0
102
RTVSPost2010PropOp31
 70
     1
102
RTVSPost2010Prop32
280
     0
102
RTVSPost2010PropOp32
 70
     1
102
RTVSPost2010Prop33
280
     0
102
RTVSPost2010PropOp33
 70
     1
102
RTVSPost2010Prop34
280
     0
102
RTVSPost2010PropOp34
 70
     1
102
RTVSPost2010Prop35
280
     0
102
RTVSPost2010PropOp35
 70
     1
102
RTVSPost2010Prop36
280
     0
102
RTVSPost2010PropOp36
 70
     1
102
RTVSPost2010Prop37
 90
       50
102
RTVSPost2010PropOp37
 70
     1
102
RTVSPost2010Prop38
140
0.0
102
RTVSPost2010PropOp38
 70
     1
102
RTVSPost2010Prop39
140
1.0
102
RTVSPost2010PropOp39
 70
     1
102
RTVSPost2010Prop40
 90
        0
102
RTVSPost2010PropOp40
 70
     1
102
RTVSPost2010Prop41ColorIndex
 90
       18
102
RTVSPost2010Prop41ColorRGB
 90
        0
102
RTVSPost2010PropOp41
 70
     1
102
RTVSPost2010Prop42
 90
       50
102
RTVSPost2010PropOp42
 70
     1
102
RTVSPost2010Prop43
 90
        3
102
RTVSPost2010PropOp43
 70
     1
102
RTVSPost2010Prop44ColorIndex
 90
        5
102
RTVSPost2010Prop44ColorRGB
 90
      255
102
RTVSPost2010PropOp44
 70
     1
102
RTVSPost2010Prop45
280
     0
102
RTVSPost2010PropOp45
 70
     1
102
RTVSPost2010Prop46
 90
       50
102
RTVSPost2010PropOp46
 70
     1
102
RTVSPost2010Prop47
 90
       50
102
RTVSPost2010PropOp47
 70
     1
102
RTVSPost2010Prop48
 90
       50
102
RTVSPost2010PropOp48
 70
     1
102
RTVSPost2010Prop49
280
     0
102
RTVSPost2010PropOp49
 70
     1
102
RTVSPost2010Prop50
 90
       50
102
RTVSPost2010PropOp50
 70
     1
102
RTVSPost2010Prop51ColorIndex
 90
      256
102
RTVSPost2010Prop51ColorRGB
 90
-16777216
102
RTVSPost2010PropOp51
 70
     0
102
RTVSPost2010Prop52
140
1.0
102
RTVSPost2010PropOp52
 70
     0
102
RTVSPost2010Prop53
 90
        2
102
RTVSPost2010PropOp53
 70
     1
102
RTVSPost2010Prop54
  1
strokes_ogs.tif
102
RTVSPost2010PropOp54
 70
     1
102
RTVSPost2010Prop55
280
     0
102
RTVSPost2010PropOp55
 70
     1
102
RTVSPost2010Prop56
140
1.0
102
RTVSPost2010PropOp56
 70
     1
102
RTVSPost2010Prop57
140
1.0
102
RTVSPost2010PropOp57
 70
     1
  0
XRECORD
  5
180
102
{ACAD_REACTORS
330
17F
102
}
330
17F
100
AcDbXrecord
280
     1
102
RTVSPropertyOp0
 70
     0
102
RTVSPropertyOp1
 70
     0
102
RTVSPropertyOp2
 70
     0
102
RTVSPropertyOp3
 70
     0
102
RTVSPropertyOp4
 70
     0
102
RTVSPropertyOp5
 70
     0
102
RTVSPropertyOp6
 70
     0
102
RTVSPropertyOp7
 70
     0
102
RTVSPropertyOp8
 70
     0
102
RTVSPropertyOp9
 70
     0
102
RTVSPropertyOp10
 70
     0
102
RTVSPropertyOp11
 70
     0
102
RTVSPropertyOp12
 70
     0
102
RTVSPropertyOp13
 70
     0
102
RTVSPropertyOp14
 70
     2
102
RTVSPropertyOp15
 70
     0
102
RTVSPropertyOp16
 70
     0
102
RTVSPropertyOp17
 70
     0
102
RTVSPropertyOp18
 70
     0
102
RTVSPropertyOp19
 70
     0
102
RTVSPropertyOp20
 70
     0
102
RTVSPropertyOp21
 70
     0
102
RTVSPropertyOp22
 70
     0
102
RTVSPropertyOp23
 70
     0
102
RTVSPropertyOp24
 70
     0
102
RTVSPropertyOp25
 70
     0
102
RTVSPropertyOp26
 70
     0
102
RTVSPropertyOp27
 70
     0
102
RTVSPropertyOp28
 70
     0
102
RTVSPropertyOp29
 70
     0
102
RTVSPropertyOp30
 70
     0
102
RTVSPropertyOp31
 70
     0
102
RTVSPropertyOp32
 70
     0
102
RTVSPropertyOp33
 70
     0
102
RTVSPropertyOp34
 70
     0
102
RTVSPropertyOp35
 70
     0
102
RTVSPropertyOp36
 70
     0
102
RTVSPropertyOp37
 70
     0
102
RTVSPropertyOp38
 70
     0
102
RTVSPropertyOp39
 70
     0
102
RTVSPropertyOp40
 70
     0
102
RTVSPropertyOp41
 70
     0
102
RTVSPropertyOp42
 70
     0
102
RTVSPropertyOp43
 70
     0
102
RTVSPropertyOp44
 70
     0
102
RTVSPropertyOp45
 70
     0
102
RTVSPropertyOp46
 70
     0
102
RTVSPropertyOp47
 70
     0
102
RTVSPropertyOp48
 70
     0
102
RTVSPropertyOp49
 70
     0
102
RTVSPropertyOp50
 70
     0
102
RTVSPropertyOp51
 70
     0
102
RTVSPropertyOp52
 70
     0
102
RTVSPropertyOp53
 70
     0
102
RTVSPropertyOp54
 70
     0
102
RTVSPropertyOp55
 70
     0
102
RTVSPropertyOp56
 70
     0
102
RTVSPropertyOp57
 70
     0
102
RTVSPost2010Prop28
280
     0
102
RTVSPost2010PropOp28
 70
     0
102
RTVSPost2010Prop29
280
     1
102
RTVSPost2010PropOp29
 70
     0
102
RTVSPost2010Prop30
280
     1
102
RTVSPost2010PropOp30
 70
     0
102
RTVSPost2010Prop31
280
     0
102
RTVSPost2010PropOp31
 70
     0
102
RTVSPost2010Prop32
280
     0
102
RTVSPost2010PropOp32
 70
     0
102
RTVSPost2010Prop33
280
     0
102
RTVSPost2010PropOp33
 70
     0
102
RTVSPost2010Prop34
280
     0
102
RTVSPost2010PropOp34
 70
     0
102
RTVSPost2010Prop35
280
     0
102
RTVSPost2010PropOp35
 70
     0
102
RTVSPost2010Prop36
280
     0
102
RTVSPost2010PropOp36
 70
     0
102
RTVSPost2010Prop37
 90
       50
102
RTVSPost2010PropOp37
 70
     0
102
RTVSPost2010Prop38
140
0.0
102
RTVSPost2010PropOp38
 70
     0
102
RTVSPost2010Prop39
140
1.0
102
RTVSPost2010PropOp39
 70
     0
102
RTVSPost2010Prop40
 90
        0
102
RTVSPost2010PropOp40
 70
     0
102
RTVSPost2010Prop41ColorIndex
 90
       18
102
RTVSPost2010Prop41ColorRGB
 90
        0
102
RTVSPost2010PropOp41
 70
     0
102
RTVSPost2010Prop42
 90
       50
102
RTVSPost2010PropOp42
 70
     0
102
RTVSPost2010Prop43
 90
        3
102
RTVSPost2010PropOp43
 70
     0
102
RTVSPost2010Prop44ColorIndex
 90
        5
102
RTVSPost2010Prop44ColorRGB
 90
      255
102
RTVSPost2010PropOp44
 70
     0
102
RTVSPost2010Prop45
280
     0
102
RTVSPost2010PropOp45
 70
     0
102
RTVSPost2010Prop46
 90
       50
102
RTVSPost2010PropOp46
 70
     0
102
RTVSPost2010Prop47
 90
       50
102
RTVSPost2010PropOp47
 70
     0
102
RTVSPost2010Prop48
 90
       50
102
RTVSPost2010PropOp48
 70
     0
102
RTVSPost2010Prop49
280
     0
102
RTVSPost2010PropOp49
 70
     0
102
RTVSPost2010Prop50
 90
       50
102
RTVSPost2010PropOp50
 70
     0
102
RTVSPost2010Prop51ColorIndex
 90
      256
102
RTVSPost2010Prop51ColorRGB
 90
-16777216
102
RTVSPost2010PropOp51
 70
     0
102
RTVSPost2010Prop52
140
1.0
102
RTVSPost2010PropOp52
 70
     0
102
RTVSPost2010Prop53
 90
        2
102
RTVSPost2010PropOp53
 70
     0
102
RTVSPost2010Prop54
  1
strokes_ogs.tif
102
RTVSPost2010PropOp54
 70
     0
102
RTVSPost2010Prop55
280
     0
102
RTVSPost2010PropOp55
 70
     0
102
RTVSPost2010Prop56
140
1.0
102
RTVSPost2010PropOp56
 70
     0
102
RTVSPost2010Prop57
140
1.0
102
RTVSPost2010PropOp57
 70
     0
  0
XRECORD
  5
16E
102
{ACAD_REACTORS
330
16D
102
}
330
16D
100
AcDbXrecord
280
     1
102
RTVSPropertyOp0
 70
     1
102
RTVSPropertyOp1
 70
     1
102
RTVSPropertyOp2
 70
     1
102
RTVSPropertyOp3
 70
     1
102
RTVSPropertyOp4
 70
     1
102
RTVSPropertyOp5
 70
     1
102
RTVSPropertyOp6
 70
     1
102
RTVSPropertyOp7
 70
     1
102
RTVSPropertyOp8
 70
     1
102
RTVSPropertyOp9
 70
     1
102
RTVSPropertyOp10
 70
     1
102
RTVSPropertyOp11
 70
     1
102
RTVSPropertyOp12
 70
     1
102
RTVSPropertyOp13
 70
     1
102
RTVSPropertyOp14
 70
     1
102
RTVSPropertyOp15
 70
     1
102
RTVSPropertyOp16
 70
     1
102
RTVSPropertyOp17
 70
     1
102
RTVSPropertyOp18
 70
     1
102
RTVSPropertyOp19
 70
     1
102
RTVSPropertyOp20
 70
     1
102
RTVSPropertyOp21
 70
     1
102
RTVSPropertyOp22
 70
     1
102
RTVSPropertyOp23
 70
     1
102
RTVSPropertyOp24
 70
     1
102
RTVSPropertyOp25
 70
     1
102
RTVSPropertyOp26
 70
     1
102
RTVSPropertyOp27
 70
     1
102
RTVSPropertyOp28
 70
     1
102
RTVSPropertyOp29
 70
     1
102
RTVSPropertyOp30
 70
     1
102
RTVSPropertyOp31
 70
     1
102
RTVSPropertyOp32
 70
     1
102
RTVSPropertyOp33
 70
     1
102
RTVSPropertyOp34
 70
     1
102
RTVSPropertyOp35
 70
     1
102
RTVSPropertyOp36
 70
     1
102
RTVSPropertyOp37
 70
     1
102
RTVSPropertyOp38
 70
     1
102
RTVSPropertyOp39
 70
     1
102
RTVSPropertyOp40
 70
     1
102
RTVSPropertyOp41
 70
     1
102
RTVSPropertyOp42
 70
     1
102
RTVSPropertyOp43
 70
     1
102
RTVSPropertyOp44
 70
     1
102
RTVSPropertyOp45
 70
     1
102
RTVSPropertyOp46
 70
     1
102
RTVSPropertyOp47
 70
     1
102
RTVSPropertyOp48
 70
     1
102
RTVSPropertyOp49
 70
     1
102
RTVSPropertyOp50
 70
     1
102
RTVSPropertyOp51
 70
     0
102
RTVSPropertyOp52
 70
     0
102
RTVSPropertyOp53
 70
     1
102
RTVSPropertyOp54
 70
     1
102
RTVSPropertyOp55
 70
     1
102
RTVSPropertyOp56
 70
     1
102
RTVSPropertyOp57
 70
     1
102
RTVSPost2010Prop28
280
     0
102
RTVSPost2010PropOp28
 70
     1
102
RTVSPost2010Prop29
280
     1
102
RTVSPost2010PropOp29
 70
     1
102
RTVSPost2010Prop30
280
     1
102
RTVSPost2010PropOp30
 70
     1
102
RTVSPost2010Prop31
280
     0
102
RTVSPost2010PropOp31
 70
     1
102
RTVSPost2010Prop32
280
     0
102
RTVSPost2010PropOp32
 70
     1
102
RTVSPost2010Prop33
280
     0
102
RTVSPost2010PropOp33
 70
     1
102
RTVSPost2010Prop34
280
     0
102
RTVSPost2010PropOp34
 70
     1
102
RTVSPost2010Prop35
280
     0
102
RTVSPost2010PropOp35
 70
     1
102
RTVSPost2010Prop36
280
     0
102
RTVSPost2010PropOp36
 70
     1
102
RTVSPost2010Prop37
 90
       50
102
RTVSPost2010PropOp37
 70
     1
102
RTVSPost2010Prop38
140
0.0
102
RTVSPost2010PropOp38
 70
     1
102
RTVSPost2010Prop39
140
1.0
102
RTVSPost2010PropOp39
 70
     1
102
RTVSPost2010Prop40
 90
        0
102
RTVSPost2010PropOp40
 70
     1
102
RTVSPost2010Prop41ColorIndex
 90
       18
102
RTVSPost2010Prop41ColorRGB
 90
        0
102
RTVSPost2010PropOp41
 70
     1
102
RTVSPost2010Prop42
 90
       50
102
RTVSPost2010PropOp42
 70
     1
102
RTVSPost2010Prop43
 90
        3
102
RTVSPost2010PropOp43
 70
     1
102
RTVSPost2010Prop44ColorIndex
 90
        5
102
RTVSPost2010Prop44ColorRGB
 90
      255
102
RTVSPost2010PropOp44
 70
     1
102
RTVSPost2010Prop45
280
     0
102
RTVSPost2010PropOp45
 70
     1
102
RTVSPost2010Prop46
 90
       50
102
RTVSPost2010PropOp46
 70
     1
102
RTVSPost2010Prop47
 90
       50
102
RTVSPost2010PropOp47
 70
     1
102
RTVSPost2010Prop48
 90
       50
102
RTVSPost2010PropOp48
 70
     1
102
RTVSPost2010Prop49
280
     0
102
RTVSPost2010PropOp49
 70
     1
102
RTVSPost2010Prop50
 90
       50
102
RTVSPost2010PropOp50
 70
     1
102
RTVSPost2010Prop51ColorIndex
 90
      256
102
RTVSPost2010Prop51ColorRGB
 90
-16777216
102
RTVSPost2010PropOp51
 70
     0
102
RTVSPost2010Prop52
140
1.0
102
RTVSPost2010PropOp52
 70
     0
102
RTVSPost2010Prop53
 90
        2
102
RTVSPost2010PropOp53
 70
     1
102
RTVSPost2010Prop54
  1
strokes_ogs.tif
102
RTVSPost2010PropOp54
 70
     1
102
RTVSPost2010Prop55
280
     0
102
RTVSPost2010PropOp55
 70
     1
102
RTVSPost2010Prop56
140
1.0
102
RTVSPost2010PropOp56
 70
     1
102
RTVSPost2010Prop57
140
1.0
102
RTVSPost2010PropOp57
 70
     1
  0
XRECORD
  5
18C
102
{ACAD_REACTORS
330
18B
102
}
330
18B
100
AcDbXrecord
280
     1
102
RTVSPropertyOp0
 70
     1
102
RTVSPropertyOp1
 70
     1
102
RTVSPropertyOp2
 70
     1
102
RTVSPropertyOp3
 70
     1
102
RTVSPropertyOp4
 70
     1
102
RTVSPropertyOp5
 70
     1
102
RTVSPropertyOp6
 70
     1
102
RTVSPropertyOp7
 70
     1
102
RTVSPropertyOp8
 70
     1
102
RTVSPropertyOp9
 70
     1
102
RTVSPropertyOp10
 70
     1
102
RTVSPropertyOp11
 70
     1
102
RTVSPropertyOp12
 70
     1
102
RTVSPropertyOp13
 70
     1
102
RTVSPropertyOp14
 70
     1
102
RTVSPropertyOp15
 70
     1
102
RTVSPropertyOp16
 70
     1
102
RTVSPropertyOp17
 70
     1
102
RTVSPropertyOp18
 70
     1
102
RTVSPropertyOp19
 70
     1
102
RTVSPropertyOp20
 70
     1
102
RTVSPropertyOp21
 70
     1
102
RTVSPropertyOp22
 70
     1
102
RTVSPropertyOp23
 70
     1
102
RTVSPropertyOp24
 70
     1
102
RTVSPropertyOp25
 70
     1
102
RTVSPropertyOp26
 70
     1
102
RTVSPropertyOp27
 70
     1
102
RTVSPropertyOp28
 70
     1
102
RTVSPropertyOp29
 70
     1
102
RTVSPropertyOp30
 70
     1
102
RTVSPropertyOp31
 70
     1
102
RTVSPropertyOp32
 70
     1
102
RTVSPropertyOp33
 70
     1
102
RTVSPropertyOp34
 70
     1
102
RTVSPropertyOp35
 70
     1
102
RTVSPropertyOp36
 70
     1
102
RTVSPropertyOp37
 70
     1
102
RTVSPropertyOp38
 70
     1
102
RTVSPropertyOp39
 70
     1
102
RTVSPropertyOp40
 70
     1
102
RTVSPropertyOp41
 70
     1
102
RTVSPropertyOp42
 70
     1
102
RTVSPropertyOp43
 70
     1
102
RTVSPropertyOp44
 70
     1
102
RTVSPropertyOp45
 70
     1
102
RTVSPropertyOp46
 70
     1
102
RTVSPropertyOp47
 70
     1
102
RTVSPropertyOp48
 70
     1
102
RTVSPropertyOp49
 70
     1
102
RTVSPropertyOp50
 70
     1
102
RTVSPropertyOp51
 70
     0
102
RTVSPropertyOp52
 70
     0
102
RTVSPropertyOp53
 70
     1
102
RTVSPropertyOp54
 70
     1
102
RTVSPropertyOp55
 70
     1
102
RTVSPropertyOp56
 70
     1
102
RTVSPropertyOp57
 70
     1
102
RTVSPost2010Prop28
280
     0
102
RTVSPost2010PropOp28
 70
     1
102
RTVSPost2010Prop29
280
     1
102
RTVSPost2010PropOp29
 70
     1
102
RTVSPost2010Prop30
280
     1
102
RTVSPost2010PropOp30
 70
     1
102
RTVSPost2010Prop31
280
     0
102
RTVSPost2010PropOp31
 70
     1
102
RTVSPost2010Prop32
280
     0
102
RTVSPost2010PropOp32
 70
     1
102
RTVSPost2010Prop33
280
     0
102
RTVSPost2010PropOp33
 70
     1
102
RTVSPost2010Prop34
280
     0
102
RTVSPost2010PropOp34
 70
     1
102
RTVSPost2010Prop35
280
     0
102
RTVSPost2010PropOp35
 70
     1
102
RTVSPost2010Prop36
280
     0
102
RTVSPost2010PropOp36
 70
     1
102
RTVSPost2010Prop37
 90
       50
102
RTVSPost2010PropOp37
 70
     1
102
RTVSPost2010Prop38
140
0.0
102
RTVSPost2010PropOp38
 70
     1
102
RTVSPost2010Prop39
140
1.0
102
RTVSPost2010PropOp39
 70
     1
102
RTVSPost2010Prop40
 90
        0
102
RTVSPost2010PropOp40
 70
     1
102
RTVSPost2010Prop41ColorIndex
 90
       18
102
RTVSPost2010Prop41ColorRGB
 90
        0
102
RTVSPost2010PropOp41
 70
     1
102
RTVSPost2010Prop42
 90
       50
102
RTVSPost2010PropOp42
 70
     1
102
RTVSPost2010Prop43
 90
        3
102
RTVSPost2010PropOp43
 70
     1
102
RTVSPost2010Prop44ColorIndex
 90
        5
102
RTVSPost2010Prop44ColorRGB
 90
      255
102
RTVSPost2010PropOp44
 70
     1
102
RTVSPost2010Prop45
280
     0
102
RTVSPost2010PropOp45
 70
     1
102
RTVSPost2010Prop46
 90
       50
102
RTVSPost2010PropOp46
 70
     1
102
RTVSPost2010Prop47
 90
       50
102
RTVSPost2010PropOp47
 70
     1
102
RTVSPost2010Prop48
 90
       50
102
RTVSPost2010PropOp48
 70
     1
102
RTVSPost2010Prop49
280
     0
102
RTVSPost2010PropOp49
 70
     1
102
RTVSPost2010Prop50
 90
       50
102
RTVSPost2010PropOp50
 70
     1
102
RTVSPost2010Prop51ColorIndex
 90
      256
102
RTVSPost2010Prop51ColorRGB
 90
-16777216
102
RTVSPost2010PropOp51
 70
     0
102
RTVSPost2010Prop52
140
1.0
102
RTVSPost2010PropOp52
 70
     0
102
RTVSPost2010Prop53
 90
        2
102
RTVSPost2010PropOp53
 70
     1
102
RTVSPost2010Prop54
  1
strokes_ogs.tif
102
RTVSPost2010PropOp54
 70
     1
102
RTVSPost2010Prop55
280
     0
102
RTVSPost2010PropOp55
 70
     1
102
RTVSPost2010Prop56
140
1.0
102
RTVSPost2010PropOp56
 70
     1
102
RTVSPost2010Prop57
140
1.0
102
RTVSPost2010PropOp57
 70
     1
  0
XRECORD
  5
18A
102
{ACAD_REACTORS
330
189
102
}
330
189
100
AcDbXrecord
280
     1
102
RTVSPropertyOp0
 70
     1
102
RTVSPropertyOp1
 70
     1
102
RTVSPropertyOp2
 70
     1
102
RTVSPropertyOp3
 70
     1
102
RTVSPropertyOp4
 70
     1
102
RTVSPropertyOp5
 70
     1
102
RTVSPropertyOp6
 70
     1
102
RTVSPropertyOp7
 70
     1
102
RTVSPropertyOp8
 70
     1
102
RTVSPropertyOp9
 70
     1
102
RTVSPropertyOp10
 70
     1
102
RTVSPropertyOp11
 70
     1
102
RTVSPropertyOp12
 70
     1
102
RTVSPropertyOp13
 70
     1
102
RTVSPropertyOp14
 70
     1
102
RTVSPropertyOp15
 70
     1
102
RTVSPropertyOp16
 70
     1
102
RTVSPropertyOp17
 70
     1
102
RTVSPropertyOp18
 70
     1
102
RTVSPropertyOp19
 70
     1
102
RTVSPropertyOp20
 70
     1
102
RTVSPropertyOp21
 70
     1
102
RTVSPropertyOp22
 70
     1
102
RTVSPropertyOp23
 70
     1
102
RTVSPropertyOp24
 70
     1
102
RTVSPropertyOp25
 70
     1
102
RTVSPropertyOp26
 70
     1
102
RTVSPropertyOp27
 70
     1
102
RTVSPropertyOp28
 70
     1
102
RTVSPropertyOp29
 70
     1
102
RTVSPropertyOp30
 70
     1
102
RTVSPropertyOp31
 70
     1
102
RTVSPropertyOp32
 70
     1
102
RTVSPropertyOp33
 70
     1
102
RTVSPropertyOp34
 70
     1
102
RTVSPropertyOp35
 70
     1
102
RTVSPropertyOp36
 70
     1
102
RTVSPropertyOp37
 70
     1
102
RTVSPropertyOp38
 70
     1
102
RTVSPropertyOp39
 70
     1
102
RTVSPropertyOp40
 70
     1
102
RTVSPropertyOp41
 70
     1
102
RTVSPropertyOp42
 70
     1
102
RTVSPropertyOp43
 70
     1
102
RTVSPropertyOp44
 70
     1
102
RTVSPropertyOp45
 70
     1
102
RTVSPropertyOp46
 70
     1
102
RTVSPropertyOp47
 70
     1
102
RTVSPropertyOp48
 70
     1
102
RTVSPropertyOp49
 70
     1
102
RTVSPropertyOp50
 70
     1
102
RTVSPropertyOp51
 70
     0
102
RTVSPropertyOp52
 70
     0
102
RTVSPropertyOp53
 70
     1
102
RTVSPropertyOp54
 70
     1
102
RTVSPropertyOp55
 70
     1
102
RTVSPropertyOp56
 70
     1
102
RTVSPropertyOp57
 70
     1
102
RTVSPost2010Prop28
280
     0
102
RTVSPost2010PropOp28
 70
     1
102
RTVSPost2010Prop29
280
     1
102
RTVSPost2010PropOp29
 70
     1
102
RTVSPost2010Prop30
280
     1
102
RTVSPost2010PropOp30
 70
     1
102
RTVSPost2010Prop31
280
     0
102
RTVSPost2010PropOp31
 70
     1
102
RTVSPost2010Prop32
280
     0
102
RTVSPost2010PropOp32
 70
     1
102
RTVSPost2010Prop33
280
     0
102
RTVSPost2010PropOp33
 70
     1
102
RTVSPost2010Prop34
280
     0
102
RTVSPost2010PropOp34
 70
     1
102
RTVSPost2010Prop35
280
     0
102
RTVSPost2010PropOp35
 70
     1
102
RTVSPost2010Prop36
280
     0
102
RTVSPost2010PropOp36
 70
     1
102
RTVSPost2010Prop37
 90
       50
102
RTVSPost2010PropOp37
 70
     1
102
RTVSPost2010Prop38
140
0.0
102
RTVSPost2010PropOp38
 70
     1
102
RTVSPost2010Prop39
140
1.0
102
RTVSPost2010PropOp39
 70
     1
102
RTVSPost2010Prop40
 90
        0
102
RTVSPost2010PropOp40
 70
     1
102
RTVSPost2010Prop41ColorIndex
 90
       18
102
RTVSPost2010Prop41ColorRGB
 90
        0
102
RTVSPost2010PropOp41
 70
     1
102
RTVSPost2010Prop42
 90
       50
102
RTVSPost2010PropOp42
 70
     1
102
RTVSPost2010Prop43
 90
        3
102
RTVSPost2010PropOp43
 70
     1
102
RTVSPost2010Prop44ColorIndex
 90
        5
102
RTVSPost2010Prop44ColorRGB
 90
      255
102
RTVSPost2010PropOp44
 70
     1
102
RTVSPost2010Prop45
280
     0
102
RTVSPost2010PropOp45
 70
     1
102
RTVSPost2010Prop46
 90
       50
102
RTVSPost2010PropOp46
 70
     1
102
RTVSPost2010Prop47
 90
       50
102
RTVSPost2010PropOp47
 70
     1
102
RTVSPost2010Prop48
 90
       50
102
RTVSPost2010PropOp48
 70
     1
102
RTVSPost2010Prop49
280
     0
102
RTVSPost2010PropOp49
 70
     1
102
RTVSPost2010Prop50
 90
       50
102
RTVSPost2010PropOp50
 70
     1
102
RTVSPost2010Prop51ColorIndex
 90
      256
102
RTVSPost2010Prop51ColorRGB
 90
-16777216
102
RTVSPost2010PropOp51
 70
     0
102
RTVSPost2010Prop52
140
1.0
102
RTVSPost2010PropOp52
 70
     0
102
RTVSPost2010Prop53
 90
        2
102
RTVSPost2010PropOp53
 70
     1
102
RTVSPost2010Prop54
  1
strokes_ogs.tif
102
RTVSPost2010PropOp54
 70
     1
102
RTVSPost2010Prop55
280
     0
102
RTVSPost2010PropOp55
 70
     1
102
RTVSPost2010Prop56
140
1.0
102
RTVSPost2010PropOp56
 70
     1
102
RTVSPost2010Prop57
140
1.0
102
RTVSPost2010PropOp57
 70
     1
  0
XRECORD
  5
184
102
{ACAD_REACTORS
330
183
102
}
330
183
100
AcDbXrecord
280
     1
102
RTVSPropertyOp0
 70
     1
102
RTVSPropertyOp1
 70
     1
102
RTVSPropertyOp2
 70
     1
102
RTVSPropertyOp3
 70
     1
102
RTVSPropertyOp4
 70
     1
102
RTVSPropertyOp5
 70
     1
102
RTVSPropertyOp6
 70
     1
102
RTVSPropertyOp7
 70
     1
102
RTVSPropertyOp8
 70
     1
102
RTVSPropertyOp9
 70
     1
102
RTVSPropertyOp10
 70
     1
102
RTVSPropertyOp11
 70
     1
102
RTVSPropertyOp12
 70
     1
102
RTVSPropertyOp13
 70
     1
102
RTVSPropertyOp14
 70
     1
102
RTVSPropertyOp15
 70
     1
102
RTVSPropertyOp16
 70
     1
102
RTVSPropertyOp17
 70
     1
102
RTVSPropertyOp18
 70
     1
102
RTVSPropertyOp19
 70
     1
102
RTVSPropertyOp20
 70
     1
102
RTVSPropertyOp21
 70
     1
102
RTVSPropertyOp22
 70
     1
102
RTVSPropertyOp23
 70
     1
102
RTVSPropertyOp24
 70
     1
102
RTVSPropertyOp25
 70
     1
102
RTVSPropertyOp26
 70
     1
102
RTVSPropertyOp27
 70
     1
102
RTVSPropertyOp28
 70
     1
102
RTVSPropertyOp29
 70
     1
102
RTVSPropertyOp30
 70
     1
102
RTVSPropertyOp31
 70
     1
102
RTVSPropertyOp32
 70
     1
102
RTVSPropertyOp33
 70
     1
102
RTVSPropertyOp34
 70
     1
102
RTVSPropertyOp35
 70
     1
102
RTVSPropertyOp36
 70
     1
102
RTVSPropertyOp37
 70
     1
102
RTVSPropertyOp38
 70
     1
102
RTVSPropertyOp39
 70
     1
102
RTVSPropertyOp40
 70
     1
102
RTVSPropertyOp41
 70
     1
102
RTVSPropertyOp42
 70
     1
102
RTVSPropertyOp43
 70
     1
102
RTVSPropertyOp44
 70
     1
102
RTVSPropertyOp45
 70
     1
102
RTVSPropertyOp46
 70
     1
102
RTVSPropertyOp47
 70
     1
102
RTVSPropertyOp48
 70
     1
102
RTVSPropertyOp49
 70
     1
102
RTVSPropertyOp50
 70
     1
102
RTVSPropertyOp51
 70
     0
102
RTVSPropertyOp52
 70
     0
102
RTVSPropertyOp53
 70
     1
102
RTVSPropertyOp54
 70
     1
102
RTVSPropertyOp55
 70
     1
102
RTVSPropertyOp56
 70
     1
102
RTVSPropertyOp57
 70
     1
102
RTVSPost2010Prop28
280
     0
102
RTVSPost2010PropOp28
 70
     1
102
RTVSPost2010Prop29
280
     1
102
RTVSPost2010PropOp29
 70
     1
102
RTVSPost2010Prop30
280
     1
102
RTVSPost2010PropOp30
 70
     1
102
RTVSPost2010Prop31
280
     0
102
RTVSPost2010PropOp31
 70
     1
102
RTVSPost2010Prop32
280
     0
102
RTVSPost2010PropOp32
 70
     1
102
RTVSPost2010Prop33
280
     0
102
RTVSPost2010PropOp33
 70
     1
102
RTVSPost2010Prop34
280
     0
102
RTVSPost2010PropOp34
 70
     1
102
RTVSPost2010Prop35
280
     0
102
RTVSPost2010PropOp35
 70
     1
102
RTVSPost2010Prop36
280
     0
102
RTVSPost2010PropOp36
 70
     1
102
RTVSPost2010Prop37
 90
       50
102
RTVSPost2010PropOp37
 70
     1
102
RTVSPost2010Prop38
140
0.0
102
RTVSPost2010PropOp38
 70
     1
102
RTVSPost2010Prop39
140
1.0
102
RTVSPost2010PropOp39
 70
     1
102
RTVSPost2010Prop40
 90
        0
102
RTVSPost2010PropOp40
 70
     1
102
RTVSPost2010Prop41ColorIndex
 90
       18
102
RTVSPost2010Prop41ColorRGB
 90
        0
102
RTVSPost2010PropOp41
 70
     1
102
RTVSPost2010Prop42
 90
       50
102
RTVSPost2010PropOp42
 70
     1
102
RTVSPost2010Prop43
 90
        3
102
RTVSPost2010PropOp43
 70
     1
102
RTVSPost2010Prop44ColorIndex
 90
        5
102
RTVSPost2010Prop44ColorRGB
 90
      255
102
RTVSPost2010PropOp44
 70
     1
102
RTVSPost2010Prop45
280
     0
102
RTVSPost2010PropOp45
 70
     1
102
RTVSPost2010Prop46
 90
       50
102
RTVSPost2010PropOp46
 70
     1
102
RTVSPost2010Prop47
 90
       50
102
RTVSPost2010PropOp47
 70
     1
102
RTVSPost2010Prop48
 90
       50
102
RTVSPost2010PropOp48
 70
     1
102
RTVSPost2010Prop49
280
     0
102
RTVSPost2010PropOp49
 70
     1
102
RTVSPost2010Prop50
 90
       50
102
RTVSPost2010PropOp50
 70
     1
102
RTVSPost2010Prop51ColorIndex
 90
      256
102
RTVSPost2010Prop51ColorRGB
 90
-16777216
102
RTVSPost2010PropOp51
 70
     0
102
RTVSPost2010Prop52
140
1.0
102
RTVSPost2010PropOp52
 70
     0
102
RTVSPost2010Prop53
 90
        2
102
RTVSPost2010PropOp53
 70
     1
102
RTVSPost2010Prop54
  1
strokes_ogs.tif
102
RTVSPost2010PropOp54
 70
     1
102
RTVSPost2010Prop55
280
     0
102
RTVSPost2010PropOp55
 70
     1
102
RTVSPost2010Prop56
140
1.0
102
RTVSPost2010PropOp56
 70
     1
102
RTVSPost2010Prop57
140
1.0
102
RTVSPost2010PropOp57
 70
     1
  0
XRECORD
  5
186
102
{ACAD_REACTORS
330
185
102
}
330
185
100
AcDbXrecord
280
     1
102
RTVSPropertyOp0
 70
     1
102
RTVSPropertyOp1
 70
     1
102
RTVSPropertyOp2
 70
     1
102
RTVSPropertyOp3
 70
     1
102
RTVSPropertyOp4
 70
     1
102
RTVSPropertyOp5
 70
     1
102
RTVSPropertyOp6
 70
     1
102
RTVSPropertyOp7
 70
     1
102
RTVSPropertyOp8
 70
     1
102
RTVSPropertyOp9
 70
     1
102
RTVSPropertyOp10
 70
     1
102
RTVSPropertyOp11
 70
     1
102
RTVSPropertyOp12
 70
     1
102
RTVSPropertyOp13
 70
     1
102
RTVSPropertyOp14
 70
     1
102
RTVSPropertyOp15
 70
     1
102
RTVSPropertyOp16
 70
     1
102
RTVSPropertyOp17
 70
     1
102
RTVSPropertyOp18
 70
     1
102
RTVSPropertyOp19
 70
     1
102
RTVSPropertyOp20
 70
     1
102
RTVSPropertyOp21
 70
     1
102
RTVSPropertyOp22
 70
     1
102
RTVSPropertyOp23
 70
     1
102
RTVSPropertyOp24
 70
     1
102
RTVSPropertyOp25
 70
     1
102
RTVSPropertyOp26
 70
     1
102
RTVSPropertyOp27
 70
     1
102
RTVSPropertyOp28
 70
     1
102
RTVSPropertyOp29
 70
     1
102
RTVSPropertyOp30
 70
     1
102
RTVSPropertyOp31
 70
     1
102
RTVSPropertyOp32
 70
     1
102
RTVSPropertyOp33
 70
     1
102
RTVSPropertyOp34
 70
     1
102
RTVSPropertyOp35
 70
     1
102
RTVSPropertyOp36
 70
     1
102
RTVSPropertyOp37
 70
     1
102
RTVSPropertyOp38
 70
     1
102
RTVSPropertyOp39
 70
     1
102
RTVSPropertyOp40
 70
     1
102
RTVSPropertyOp41
 70
     1
102
RTVSPropertyOp42
 70
     1
102
RTVSPropertyOp43
 70
     1
102
RTVSPropertyOp44
 70
     1
102
RTVSPropertyOp45
 70
     1
102
RTVSPropertyOp46
 70
     1
102
RTVSPropertyOp47
 70
     1
102
RTVSPropertyOp48
 70
     1
102
RTVSPropertyOp49
 70
     1
102
RTVSPropertyOp50
 70
     1
102
RTVSPropertyOp51
 70
     0
102
RTVSPropertyOp52
 70
     0
102
RTVSPropertyOp53
 70
     1
102
RTVSPropertyOp54
 70
     1
102
RTVSPropertyOp55
 70
     1
102
RTVSPropertyOp56
 70
     1
102
RTVSPropertyOp57
 70
     1
102
RTVSPost2010Prop28
280
     0
102
RTVSPost2010PropOp28
 70
     1
102
RTVSPost2010Prop29
280
     1
102
RTVSPost2010PropOp29
 70
     1
102
RTVSPost2010Prop30
280
     1
102
RTVSPost2010PropOp30
 70
     1
102
RTVSPost2010Prop31
280
     0
102
RTVSPost2010PropOp31
 70
     1
102
RTVSPost2010Prop32
280
     0
102
RTVSPost2010PropOp32
 70
     1
102
RTVSPost2010Prop33
280
     0
102
RTVSPost2010PropOp33
 70
     1
102
RTVSPost2010Prop34
280
     0
102
RTVSPost2010PropOp34
 70
     1
102
RTVSPost2010Prop35
280
     0
102
RTVSPost2010PropOp35
 70
     1
102
RTVSPost2010Prop36
280
     0
102
RTVSPost2010PropOp36
 70
     1
102
RTVSPost2010Prop37
 90
       50
102
RTVSPost2010PropOp37
 70
     1
102
RTVSPost2010Prop38
140
0.0
102
RTVSPost2010PropOp38
 70
     1
102
RTVSPost2010Prop39
140
1.0
102
RTVSPost2010PropOp39
 70
     1
102
RTVSPost2010Prop40
 90
        0
102
RTVSPost2010PropOp40
 70
     1
102
RTVSPost2010Prop41ColorIndex
 90
       18
102
RTVSPost2010Prop41ColorRGB
 90
        0
102
RTVSPost2010PropOp41
 70
     1
102
RTVSPost2010Prop42
 90
       50
102
RTVSPost2010PropOp42
 70
     1
102
RTVSPost2010Prop43
 90
        3
102
RTVSPost2010PropOp43
 70
     1
102
RTVSPost2010Prop44ColorIndex
 90
        5
102
RTVSPost2010Prop44ColorRGB
 90
      255
102
RTVSPost2010PropOp44
 70
     1
102
RTVSPost2010Prop45
280
     0
102
RTVSPost2010PropOp45
 70
     1
102
RTVSPost2010Prop46
 90
       50
102
RTVSPost2010PropOp46
 70
     1
102
RTVSPost2010Prop47
 90
       50
102
RTVSPost2010PropOp47
 70
     1
102
RTVSPost2010Prop48
 90
       50
102
RTVSPost2010PropOp48
 70
     1
102
RTVSPost2010Prop49
280
     0
102
RTVSPost2010PropOp49
 70
     1
102
RTVSPost2010Prop50
 90
       50
102
RTVSPost2010PropOp50
 70
     1
102
RTVSPost2010Prop51ColorIndex
 90
      256
102
RTVSPost2010Prop51ColorRGB
 90
-16777216
102
RTVSPost2010PropOp51
 70
     0
102
RTVSPost2010Prop52
140
1.0
102
RTVSPost2010PropOp52
 70
     0
102
RTVSPost2010Prop53
 90
        2
102
RTVSPost2010PropOp53
 70
     1
102
RTVSPost2010Prop54
  1
strokes_ogs.tif
102
RTVSPost2010PropOp54
 70
     1
102
RTVSPost2010Prop55
280
     0
102
RTVSPost2010PropOp55
 70
     1
102
RTVSPost2010Prop56
140
1.0
102
RTVSPost2010PropOp56
 70
     1
102
RTVSPost2010Prop57
140
1.0
102
RTVSPost2010PropOp57
 70
     1
  0
XRECORD
  5
176
102
{ACAD_REACTORS
330
175
102
}
330
175
100
AcDbXrecord
280
     1
102
RTVSPropertyOp0
 70
     1
102
RTVSPropertyOp1
 70
     1
102
RTVSPropertyOp2
 70
     1
102
RTVSPropertyOp3
 70
     1
102
RTVSPropertyOp4
 70
     1
102
RTVSPropertyOp5
 70
     1
102
RTVSPropertyOp6
 70
     1
102
RTVSPropertyOp7
 70
     1
102
RTVSPropertyOp8
 70
     1
102
RTVSPropertyOp9
 70
     1
102
RTVSPropertyOp10
 70
     1
102
RTVSPropertyOp11
 70
     1
102
RTVSPropertyOp12
 70
     1
102
RTVSPropertyOp13
 70
     1
102
RTVSPropertyOp14
 70
     1
102
RTVSPropertyOp15
 70
     1
102
RTVSPropertyOp16
 70
     1
102
RTVSPropertyOp17
 70
     1
102
RTVSPropertyOp18
 70
     1
102
RTVSPropertyOp19
 70
     1
102
RTVSPropertyOp20
 70
     1
102
RTVSPropertyOp21
 70
     1
102
RTVSPropertyOp22
 70
     1
102
RTVSPropertyOp23
 70
     1
102
RTVSPropertyOp24
 70
     1
102
RTVSPropertyOp25
 70
     1
102
RTVSPropertyOp26
 70
     1
102
RTVSPropertyOp27
 70
     1
102
RTVSPropertyOp28
 70
     1
102
RTVSPropertyOp29
 70
     1
102
RTVSPropertyOp30
 70
     1
102
RTVSPropertyOp31
 70
     1
102
RTVSPropertyOp32
 70
     1
102
RTVSPropertyOp33
 70
     1
102
RTVSPropertyOp34
 70
     1
102
RTVSPropertyOp35
 70
     1
102
RTVSPropertyOp36
 70
     1
102
RTVSPropertyOp37
 70
     1
102
RTVSPropertyOp38
 70
     1
102
RTVSPropertyOp39
 70
     1
102
RTVSPropertyOp40
 70
     1
102
RTVSPropertyOp41
 70
     1
102
RTVSPropertyOp42
 70
     1
102
RTVSPropertyOp43
 70
     1
102
RTVSPropertyOp44
 70
     1
102
RTVSPropertyOp45
 70
     1
102
RTVSPropertyOp46
 70
     1
102
RTVSPropertyOp47
 70
     1
102
RTVSPropertyOp48
 70
     1
102
RTVSPropertyOp49
 70
     1
102
RTVSPropertyOp50
 70
     1
102
RTVSPropertyOp51
 70
     0
102
RTVSPropertyOp52
 70
     0
102
RTVSPropertyOp53
 70
     1
102
RTVSPropertyOp54
 70
     1
102
RTVSPropertyOp55
 70
     1
102
RTVSPropertyOp56
 70
     1
102
RTVSPropertyOp57
 70
     1
102
RTVSPost2010Prop28
280
     0
102
RTVSPost2010PropOp28
 70
     1
102
RTVSPost2010Prop29
280
     1
102
RTVSPost2010PropOp29
 70
     1
102
RTVSPost2010Prop30
280
     1
102
RTVSPost2010PropOp30
 70
     1
102
RTVSPost2010Prop31
280
     0
102
RTVSPost2010PropOp31
 70
     1
102
RTVSPost2010Prop32
280
     0
102
RTVSPost2010PropOp32
 70
     1
102
RTVSPost2010Prop33
280
     0
102
RTVSPost2010PropOp33
 70
     1
102
RTVSPost2010Prop34
280
     0
102
RTVSPost2010PropOp34
 70
     1
102
RTVSPost2010Prop35
280
     0
102
RTVSPost2010PropOp35
 70
     1
102
RTVSPost2010Prop36
280
     0
102
RTVSPost2010PropOp36
 70
     1
102
RTVSPost2010Prop37
 90
       50
102
RTVSPost2010PropOp37
 70
     1
102
RTVSPost2010Prop38
140
0.0
102
RTVSPost2010PropOp38
 70
     1
102
RTVSPost2010Prop39
140
1.0
102
RTVSPost2010PropOp39
 70
     1
102
RTVSPost2010Prop40
 90
        0
102
RTVSPost2010PropOp40
 70
     1
102
RTVSPost2010Prop41ColorIndex
 90
       18
102
RTVSPost2010Prop41ColorRGB
 90
        0
102
RTVSPost2010PropOp41
 70
     1
102
RTVSPost2010Prop42
 90
       50
102
RTVSPost2010PropOp42
 70
     1
102
RTVSPost2010Prop43
 90
        3
102
RTVSPost2010PropOp43
 70
     1
102
RTVSPost2010Prop44ColorIndex
 90
        5
102
RTVSPost2010Prop44ColorRGB
 90
      255
102
RTVSPost2010PropOp44
 70
     1
102
RTVSPost2010Prop45
280
     0
102
RTVSPost2010PropOp45
 70
     1
102
RTVSPost2010Prop46
 90
       50
102
RTVSPost2010PropOp46
 70
     1
102
RTVSPost2010Prop47
 90
       50
102
RTVSPost2010PropOp47
 70
     1
102
RTVSPost2010Prop48
 90
       50
102
RTVSPost2010PropOp48
 70
     1
102
RTVSPost2010Prop49
280
     0
102
RTVSPost2010PropOp49
 70
     1
102
RTVSPost2010Prop50
 90
       50
102
RTVSPost2010PropOp50
 70
     1
102
RTVSPost2010Prop51ColorIndex
 90
      256
102
RTVSPost2010Prop51ColorRGB
 90
-16777216
102
RTVSPost2010PropOp51
 70
     0
102
RTVSPost2010Prop52
140
1.0
102
RTVSPost2010PropOp52
 70
     0
102
RTVSPost2010Prop53
 90
        2
102
RTVSPost2010PropOp53
 70
     1
102
RTVSPost2010Prop54
  1
strokes_ogs.tif
102
RTVSPost2010PropOp54
 70
     1
102
RTVSPost2010Prop55
280
     0
102
RTVSPost2010PropOp55
 70
     1
102
RTVSPost2010Prop56
140
1.0
102
RTVSPost2010PropOp56
 70
     1
102
RTVSPost2010Prop57
140
1.0
102
RTVSPost2010PropOp57
 70
     1
  0
XRECORD
  5
168
102
{ACAD_REACTORS
330
167
102
}
330
167
100
AcDbXrecord
280
     1
102
RTVSPropertyOp0
 70
     1
102
RTVSPropertyOp1
 70
     1
102
RTVSPropertyOp2
 70
     1
102
RTVSPropertyOp3
 70
     1
102
RTVSPropertyOp4
 70
     1
102
RTVSPropertyOp5
 70
     1
102
RTVSPropertyOp6
 70
     1
102
RTVSPropertyOp7
 70
     1
102
RTVSPropertyOp8
 70
     1
102
RTVSPropertyOp9
 70
     1
102
RTVSPropertyOp10
 70
     1
102
RTVSPropertyOp11
 70
     1
102
RTVSPropertyOp12
 70
     1
102
RTVSPropertyOp13
 70
     1
102
RTVSPropertyOp14
 70
     1
102
RTVSPropertyOp15
 70
     1
102
RTVSPropertyOp16
 70
     1
102
RTVSPropertyOp17
 70
     1
102
RTVSPropertyOp18
 70
     1
102
RTVSPropertyOp19
 70
     1
102
RTVSPropertyOp20
 70
     1
102
RTVSPropertyOp21
 70
     1
102
RTVSPropertyOp22
 70
     1
102
RTVSPropertyOp23
 70
     1
102
RTVSPropertyOp24
 70
     1
102
RTVSPropertyOp25
 70
     1
102
RTVSPropertyOp26
 70
     1
102
RTVSPropertyOp27
 70
     1
102
RTVSPropertyOp28
 70
     1
102
RTVSPropertyOp29
 70
     1
102
RTVSPropertyOp30
 70
     1
102
RTVSPropertyOp31
 70
     1
102
RTVSPropertyOp32
 70
     1
102
RTVSPropertyOp33
 70
     1
102
RTVSPropertyOp34
 70
     1
102
RTVSPropertyOp35
 70
     1
102
RTVSPropertyOp36
 70
     1
102
RTVSPropertyOp37
 70
     1
102
RTVSPropertyOp38
 70
     1
102
RTVSPropertyOp39
 70
     1
102
RTVSPropertyOp40
 70
     1
102
RTVSPropertyOp41
 70
     1
102
RTVSPropertyOp42
 70
     1
102
RTVSPropertyOp43
 70
     1
102
RTVSPropertyOp44
 70
     1
102
RTVSPropertyOp45
 70
     1
102
RTVSPropertyOp46
 70
     1
102
RTVSPropertyOp47
 70
     1
102
RTVSPropertyOp48
 70
     1
102
RTVSPropertyOp49
 70
     1
102
RTVSPropertyOp50
 70
     1
102
RTVSPropertyOp51
 70
     0
102
RTVSPropertyOp52
 70
     0
102
RTVSPropertyOp53
 70
     1
102
RTVSPropertyOp54
 70
     1
102
RTVSPropertyOp55
 70
     1
102
RTVSPropertyOp56
 70
     1
102
RTVSPropertyOp57
 70
     1
102
RTVSPost2010Prop28
280
     0
102
RTVSPost2010PropOp28
 70
     1
102
RTVSPost2010Prop29
280
     1
102
RTVSPost2010PropOp29
 70
     1
102
RTVSPost2010Prop30
280
     1
102
RTVSPost2010PropOp30
 70
     1
102
RTVSPost2010Prop31
280
     0
102
RTVSPost2010PropOp31
 70
     1
102
RTVSPost2010Prop32
280
     0
102
RTVSPost2010PropOp32
 70
     1
102
RTVSPost2010Prop33
280
     0
102
RTVSPost2010PropOp33
 70
     1
102
RTVSPost2010Prop34
280
     0
102
RTVSPost2010PropOp34
 70
     1
102
RTVSPost2010Prop35
280
     0
102
RTVSPost2010PropOp35
 70
     1
102
RTVSPost2010Prop36
280
     0
102
RTVSPost2010PropOp36
 70
     1
102
RTVSPost2010Prop37
 90
       50
102
RTVSPost2010PropOp37
 70
     1
102
RTVSPost2010Prop38
140
0.0
102
RTVSPost2010PropOp38
 70
     1
102
RTVSPost2010Prop39
140
1.0
102
RTVSPost2010PropOp39
 70
     1
102
RTVSPost2010Prop40
 90
        0
102
RTVSPost2010PropOp40
 70
     1
102
RTVSPost2010Prop41ColorIndex
 90
       18
102
RTVSPost2010Prop41ColorRGB
 90
        0
102
RTVSPost2010PropOp41
 70
     1
102
RTVSPost2010Prop42
 90
       50
102
RTVSPost2010PropOp42
 70
     1
102
RTVSPost2010Prop43
 90
        3
102
RTVSPost2010PropOp43
 70
     1
102
RTVSPost2010Prop44ColorIndex
 90
        5
102
RTVSPost2010Prop44ColorRGB
 90
      255
102
RTVSPost2010PropOp44
 70
     1
102
RTVSPost2010Prop45
280
     0
102
RTVSPost2010PropOp45
 70
     1
102
RTVSPost2010Prop46
 90
       50
102
RTVSPost2010PropOp46
 70
     1
102
RTVSPost2010Prop47
 90
       50
102
RTVSPost2010PropOp47
 70
     1
102
RTVSPost2010Prop48
 90
       50
102
RTVSPost2010PropOp48
 70
     1
102
RTVSPost2010Prop49
280
     0
102
RTVSPost2010PropOp49
 70
     1
102
RTVSPost2010Prop50
 90
       50
102
RTVSPost2010PropOp50
 70
     1
102
RTVSPost2010Prop51ColorIndex
 90
      256
102
RTVSPost2010Prop51ColorRGB
 90
-16777216
102
RTVSPost2010PropOp51
 70
     0
102
RTVSPost2010Prop52
140
1.0
102
RTVSPost2010PropOp52
 70
     0
102
RTVSPost2010Prop53
 90
        2
102
RTVSPost2010PropOp53
 70
     1
102
RTVSPost2010Prop54
  1
strokes_ogs.tif
102
RTVSPost2010PropOp54
 70
     1
102
RTVSPost2010Prop55
280
     0
102
RTVSPost2010PropOp55
 70
     1
102
RTVSPost2010Prop56
140
1.0
102
RTVSPost2010PropOp56
 70
     1
102
RTVSPost2010Prop57
140
1.0
102
RTVSPost2010PropOp57
 70
     1
  0
XRECORD
  5
188
102
{ACAD_REACTORS
330
187
102
}
330
187
100
AcDbXrecord
280
     1
102
RTVSPropertyOp0
 70
     1
102
RTVSPropertyOp1
 70
     1
102
RTVSPropertyOp2
 70
     1
102
RTVSPropertyOp3
 70
     1
102
RTVSPropertyOp4
 70
     1
102
RTVSPropertyOp5
 70
     1
102
RTVSPropertyOp6
 70
     1
102
RTVSPropertyOp7
 70
     1
102
RTVSPropertyOp8
 70
     1
102
RTVSPropertyOp9
 70
     1
102
RTVSPropertyOp10
 70
     1
102
RTVSPropertyOp11
 70
     1
102
RTVSPropertyOp12
 70
     1
102
RTVSPropertyOp13
 70
     1
102
RTVSPropertyOp14
 70
     1
102
RTVSPropertyOp15
 70
     1
102
RTVSPropertyOp16
 70
     1
102
RTVSPropertyOp17
 70
     1
102
RTVSPropertyOp18
 70
     1
102
RTVSPropertyOp19
 70
     1
102
RTVSPropertyOp20
 70
     1
102
RTVSPropertyOp21
 70
     1
102
RTVSPropertyOp22
 70
     1
102
RTVSPropertyOp23
 70
     1
102
RTVSPropertyOp24
 70
     1
102
RTVSPropertyOp25
 70
     1
102
RTVSPropertyOp26
 70
     1
102
RTVSPropertyOp27
 70
     1
102
RTVSPropertyOp28
 70
     1
102
RTVSPropertyOp29
 70
     1
102
RTVSPropertyOp30
 70
     1
102
RTVSPropertyOp31
 70
     1
102
RTVSPropertyOp32
 70
     1
102
RTVSPropertyOp33
 70
     1
102
RTVSPropertyOp34
 70
     1
102
RTVSPropertyOp35
 70
     1
102
RTVSPropertyOp36
 70
     1
102
RTVSPropertyOp37
 70
     1
102
RTVSPropertyOp38
 70
     1
102
RTVSPropertyOp39
 70
     1
102
RTVSPropertyOp40
 70
     1
102
RTVSPropertyOp41
 70
     1
102
RTVSPropertyOp42
 70
     1
102
RTVSPropertyOp43
 70
     1
102
RTVSPropertyOp44
 70
     1
102
RTVSPropertyOp45
 70
     1
102
RTVSPropertyOp46
 70
     1
102
RTVSPropertyOp47
 70
     1
102
RTVSPropertyOp48
 70
     1
102
RTVSPropertyOp49
 70
     1
102
RTVSPropertyOp50
 70
     1
102
RTVSPropertyOp51
 70
     0
102
RTVSPropertyOp52
 70
     0
102
RTVSPropertyOp53
 70
     1
102
RTVSPropertyOp54
 70
     1
102
RTVSPropertyOp55
 70
     1
102
RTVSPropertyOp56
 70
     1
102
RTVSPropertyOp57
 70
     1
102
RTVSPost2010Prop28
280
     0
102
RTVSPost2010PropOp28
 70
     1
102
RTVSPost2010Prop29
280
     1
102
RTVSPost2010PropOp29
 70
     1
102
RTVSPost2010Prop30
280
     1
102
RTVSPost2010PropOp30
 70
     1
102
RTVSPost2010Prop31
280
     0
102
RTVSPost2010PropOp31
 70
     1
102
RTVSPost2010Prop32
280
     0
102
RTVSPost2010PropOp32
 70
     1
102
RTVSPost2010Prop33
280
     0
102
RTVSPost2010PropOp33
 70
     1
102
RTVSPost2010Prop34
280
     0
102
RTVSPost2010PropOp34
 70
     1
102
RTVSPost2010Prop35
280
     0
102
RTVSPost2010PropOp35
 70
     1
102
RTVSPost2010Prop36
280
     0
102
RTVSPost2010PropOp36
 70
     1
102
RTVSPost2010Prop37
 90
       50
102
RTVSPost2010PropOp37
 70
     1
102
RTVSPost2010Prop38
140
0.0
102
RTVSPost2010PropOp38
 70
     1
102
RTVSPost2010Prop39
140
1.0
102
RTVSPost2010PropOp39
 70
     1
102
RTVSPost2010Prop40
 90
        0
102
RTVSPost2010PropOp40
 70
     1
102
RTVSPost2010Prop41ColorIndex
 90
       18
102
RTVSPost2010Prop41ColorRGB
 90
        0
102
RTVSPost2010PropOp41
 70
     1
102
RTVSPost2010Prop42
 90
       50
102
RTVSPost2010PropOp42
 70
     1
102
RTVSPost2010Prop43
 90
        3
102
RTVSPost2010PropOp43
 70
     1
102
RTVSPost2010Prop44ColorIndex
 90
        5
102
RTVSPost2010Prop44ColorRGB
 90
      255
102
RTVSPost2010PropOp44
 70
     1
102
RTVSPost2010Prop45
280
     0
102
RTVSPost2010PropOp45
 70
     1
102
RTVSPost2010Prop46
 90
       50
102
RTVSPost2010PropOp46
 70
     1
102
RTVSPost2010Prop47
 90
       50
102
RTVSPost2010PropOp47
 70
     1
102
RTVSPost2010Prop48
 90
       50
102
RTVSPost2010PropOp48
 70
     1
102
RTVSPost2010Prop49
280
     0
102
RTVSPost2010PropOp49
 70
     1
102
RTVSPost2010Prop50
 90
       50
102
RTVSPost2010PropOp50
 70
     1
102
RTVSPost2010Prop51ColorIndex
 90
      256
102
RTVSPost2010Prop51ColorRGB
 90
-16777216
102
RTVSPost2010PropOp51
 70
     0
102
RTVSPost2010Prop52
140
1.0
102
RTVSPost2010PropOp52
 70
     0
102
RTVSPost2010Prop53
 90
        2
102
RTVSPost2010PropOp53
 70
     1
102
RTVSPost2010Prop54
  1
strokes_ogs.tif
102
RTVSPost2010PropOp54
 70
     1
102
RTVSPost2010Prop55
280
     0
102
RTVSPost2010PropOp55
 70
     1
102
RTVSPost2010Prop56
140
1.0
102
RTVSPost2010PropOp56
 70
     1
102
RTVSPost2010Prop57
140
1.0
102
RTVSPost2010PropOp57
 70
     1
  0
ENDSEC
  0
EOF
